Song name
# A B C D E F G H I J K L M N O P Q R S T U V W X Y Z

Mumford And Sons - The Cave tab

This is a tab for the cave by Mumford and sons, amazing band, amazing song!

Tuning: DADF#AD
Capo: 2nd Fret
Symbols: / - slide
         x - Mute
         . - Palm mute

Intro:
D:------------------------------------------------------|
A:------------------------------------------------------|
F#:------------------------0----------0-----------0-----|
D:-----3/4--2--0--------0-----0-----0----0-----0-----0--|    x3
A:----------------0--2-----------2----------0-----------|
D:------------------------------------------------------|

D:--------------------------------0--0------------------|
A:--------------------------------0--0------------------|
F#:-------------0--------0--------1--0------------------|
D:-----------4--------0-----0-----0--0------------------|
A:--------4-----------------------2--0------------------|
D:-----4-----------0-----------0--0--0------------------|

Verse 1 and 2:
D:------------------------------------------------------|
A:------------------------------------------------------|
F#:------------------------0----------0-----------0-----|
D:-----3/4--2--0--------0-----0-----0----0-----0-----0--|    x3
A:----------------0--2-----------2----------0-----------|
D:------------------------------------------------------|

D:--------------------------------0--0------------------|
A:--------------------------------0--0------------------|
F#:-------------0--------0--------1--0------------------|
D:-----------4--------0-----0-----0--0------------------|
A:--------4-----------------------2--0------------------|
D:-----4-----------0-----------0--0--0------------------|

Chorus: (This is for just strumming down, he gallops when he plays so if you gallop just 
gallop for the bars, depends how fast you can play)
D:-----------------------------------------------------------------|
A:-----------------------------------------------------------------|
F#:----------------------------------------------------------------|
D:-----0--0--0--0--5--5--0--0--0--0--0--0--5--5--0--0--5--5--0--0--|
A:-----0--0--0--0--5--5--0--0--0--0--0--0--5--5--0--0--5--5--0--0--|
D:-----0--0--0--0--5--5--0--0--0--0--0--0--5--5--0--0--5--5--0--0--|

D:-----------------------------------------------------------------|
A:-----------------------------------------------------------------|
F#:----------------------------------------------------------------|
D:-----7--7--7--7--9--9--9--9--5--5--0--0--9--9--9--9--5--5--0--0--|
A:-----7--7--7--7--9--9--9--9--5--5--0--0--9--9--9--9--5--5--0--0--|
D:-----7--7--7--7--9--9--9--9--5--5--0--0--9--9--9--9--5--5--0--0--|

D:-----------------------------------------------------------------|
A:-----------------------------------------------------------------|
F#:----------------------------------------------------------------|
D:-----5--5--0--0--7--7--7--7--7-----------------------------------|
A:-----5--5--0--0--7--7--7--7--7-----------------------------------|
D:-----5--5--0--0--7--7--7--7--7-----------------------------------|

Verses (after 1 and 2):
       .  .  .  .  .  .  .  .  .  .  .  .  .  .  .  .
D:-----0--0--0--0--0--0--0--0--0--0--0--0--0--0--0--0--|
A:-----0--0--0--0--0--0--0--0--0--0--0--0--0--0--0--0--|
F#:----0--0--0--0--0--0--0--0--0--0--0--0--0--0--0--0--|
D:-----0--0--0--0--0--0--0--0--0--0--0--0--0--0--0--0--|    x3
A:-----2--2--2--2--2--2--2--2--0--0--0--0--0--0--0--0--|
D:-----x--x--x--x--x--x--x--x--x--x--x--x--x--x--x--x--|
       .  .  .  .  .  .  .  .  .  .  .  .
D:-----0--0--0--0--0--0--0--0--0--0--0--0--------------|
A:-----0--0--0--0--0--0--0--0--0--0--0--0--------------|
F#:----0--0--0--0--0--0--0--0--0--0--1--0--------------|
D:-----0--0--0--0--0--0--0--0--0--0--0--0--------------|
A:-----0--0--0--0--0--0--0--0--0--0--2--0--------------|
D:-----4--4--4--4--0--0--0--0--0--0--0--0--------------|

This is my version of it and i hope you enjoy :D

This version is 100%, ive seen others that are different, i tabbed this by watching him 
play live so this is how he plays it.

Tabs by CoCoPoPz
Tap to rate this tab
 
# A B C D E F G H I J K L M N O P Q R S T U V W X Y Z