Mumford And Sons - Sigh No More tab

Sigh No More - Mumford & Sons


Open C Tuning variation (the one that our friend Jimmy Page uses on some Led Zeppelin songs)

E stays as E
B up to    C
G stays as G
D down to  C
A stays as A
E down to  C


If you are tuning without a tuner and are new to open tunings, you can play the 9th fret 
on the E string next to the open A string, when
they sound the same your bottom E string is tuned to C. When tuning the D string you can 
play it open next to the 3rd fret on the A string,
when they sound the same your D string is tuned down to C. Finally you can play your 
open B string next to the 5th fret on the G string,
when they sound the same your B string is tuned up to C.


Fingerpicked (until the last go round the "Man is a giddy thing" section)


   Serve     god    love   me    and    mend
E-------------------------------------------------------------------|
C----0---0---0---0---0---0---0---0---0---0---0---0---0---0---0---0--|
G----0---0---0---0---0---0---0---0---0---0---0---0---0---0---0---0--|
C--0---0---0---0---0---0---0---0---0---0---0---0---0---0---0---0----|
A-------------------------------------------------------------------|
C-------------------------------------------------------------------|

   This     is    not   the    end
E-------------------------------------------------------------------|
C----0---0---0---0---0---0---0---0---0---0---0---0---0---0---0---0--|
G----0---0---0---0---0---0---0---0---0---0---0---0---0---0---0---0--|
C--0---0---0---0---0---0---0---0---0---0---0---0---0---0---0---0----|
A-------------------------------------------------------------------|
C-------------------------------------------------------------------|

    Lived     and  bruised     we   are   friends
E-------------------------------------------------------------------|
C----0---0---0---0---0---0---0---0---0---0---0---0---0---0---0---0--|
G----0---0---0---0---0---0---0---0---0---0---0---0---0---0---0---0--|
C--0---0---0---0---0---0---0---0---0---0---0---0---0---0---0---0----|
A-------------------------------------------------------------------|
C-------------------------------------------------------------------|

  And  Im  sorry
E-------------------------------------------------------------------|
C----0---0---0---0---0---0---0---0---0---0---0---0---0---0---0---0--|
G----0---0---0---0---0---0---0---0---0---0---0---0---0---0---0---0--|
C----------------------------------0---0---0---0---0---0---0---0----|
A--0---0---0---0---0---0---0---0------------------------------------|
C-------------------------------------------------------------------|

  And  Im  sorry
E-------------------------------------------------------------------|
C----0---0---0---0---0---0---0---0---0---0---0---0---0---0---0---0--|
G----0---0---0---0---0---0---0---0---0---0---0---0---0---0---0---0--|
C----------------------------------0---0---0---0---0---0---0---0----|
A--0---0---0---0---0---0---0---0------------------------------------|
C-------------------------------------------------------------------|

E--------------------------------------------------------------------|
C----4---4---4---4-\-2---2---2---2-\-0---0---0---0----------0--------|
G----0---0---0---0---0---0---0---0---0---0---0---0--0-h2-------------|
C--0---0---0---0---0---0---0---0---0---0---0---0----------(0)--2--0--|
A--------------------------------------------------------------------|
C--------------------------------------------------------------------|

E-------------------------------------------------------------------|
C----4---4---4---4-\-2---2---2---2-\-0---0---0---0---0---0---0---0--|
G----0---0---0---0---0---0---0---0---0---0---0---0---0---0---0---0--|
C--0---0---0---0---0---0---0---0---0---0---0---0---0---0---0---0----|
A-------------------------------------------------------------------|
C-------------------------------------------------------------------|

Sigh    no   more   no   more
E-------------------------------------------------------------------|
C----4---4---4---4-\-2---2---2---2-\-0---0---0---0---0---0---0---0--|
G----0---0---0---0---0---0---0---0---0---0---0---0---0---0---0---0--|
C--0---0---0---0---0---0---0---0---0---0---0---0---0---0---0---0----|
A-------------------------------------------------------------------|
C-------------------------------------------------------------------|

One foot   on   sea  and   one  on   shore
E-------------------------------------------------------------------|
C----4---4---4---4-\-2---2---2---2-\-0---0---0---0---0---0---0---0--|
G----0---0---0---0---0---0---0---0---0---0---0---0---0---0---0---0--|
C--0---0---0---0---0---0---0---0---0---0---0---0---0---0---0---0----|
A-------------------------------------------------------------------|
C-------------------------------------------------------------------|

  My  heart   was   never   pure
E-------------------------------------------------------------------|
C----4---4---4---4-\-2---2---2---2-\-0---0---0---0---0---0---0---0--|
G----0---0---0---0---0---0---0---0---0---0---0---0---0---0---0---0--|
C--0---0---0---0---0---0---0---0---0---0---0---0---0---0---0---0----|
A-------------------------------------------------------------------|
C-------------------------------------------------------------------|

 _______
|
|   And you    know     me
|  E-------------------------------------------------------------------|
|  C----0---0---0---0---0---0---0---0---0---0---0---0---0---0---0---0--|
|  G----0---0---0---0---0---0---0---0---0---0---0---0---0---0---0---0--|
|  C----------------------------------0---0---0---0---0---0---0---0----|
|  A--0---0---0---0---0---0---0---0------------------------------------|
|  C-------------------------------------------------------------------|
|
|  E--0-------------------------------0--------------------------------|
|  C--0-------------------------------0--------------------------------|
|  G--0-------------------------------0--------------------------------|
|  C--4-------------------------------0--------------------------------|
|  A--0-------------------------------3--------------------------------|
|  C----------------------------------0--------------------------------|       x2
|_______



And man is a giddy thing       oh man is a giddy thing
E--0------0--------0---------------0------0--------0----------------|
C--0------0--------0---------------0------0--------0----------------|
G--0------0--------0---------------0------0--------0----------------|
C--4------5--------0---------------4------5--------0----------------|
A--0------x--------3---------------0------x--------3----------------|
C---------5--------0----------------------5--------0----------------|       x2


  (P.M throughout)
E-------------------------------------------------|
C-------------------------------------------------|
G--0-----0-----0-----0--0-----0--0-----0-----0----|
C--0-----0-----0-----0--0-----0--0-----0-----0----|
A--3-----3-----3-----3--3-----3--3-----3-----3----|
C--0-----0-----0-----0--0-----0--0-----0-----0----|

   Love    it will not   betray you,   dismay or  enslave  you   it  will  set       you
E--------------------------------------------------------------------------------------------------|
C--------------------------------------------------------------------------------------------------|
G--0-----0-----0-----0-----0-----0-----0-----0-----0-----0-----0-----0-----0-----0-----0-----0-----|
C--0-----0-----0-----0-----0-----0-----0-----0-----7-----7-----7-----7-----9-----9-----7-----7-----|
A--2-----2-----2-----2-----3-----3-----3-----3-----x-----x-----x-----x-----x-----x-----x-----x-----|
C--0-----0-----0-----0-----0-----0-----0-----0-----7-----7-----7-----7-----9-----9-----7-----7-----|

  Free     be more like the man          you were  made       to          be
E--------------------------------------------------------------------------------------------------|
C--------------------------------------------------------------------------------------------------|
G--0-----0-----0-----0-----0-----0-----0-----0-----0-----0-----0-----0-----0-----0-----0-----0--0--|
C--5-----5-----5-----5-----0-----0-----0-----0-----4-----4-----5-----5-----0-----0-----0-----0--0--|
A--x-----x-----x-----x-----5-----5-----5-----5-----0-----0-----x-----x-----3-----3-----3-----3--3--|
C--5-----5-----5-----5-----0-----0-----0-----0-----------------5-----5-----0-----0-----0-----0--0--|

E--------------------------|
C--------------------------|
G-----0--0-----0-----0-----|
C-----0--0-----0-----0-----|
A-----3--3-----3-----3-----|
C-----0--0-----0-----0-----|

   There     is    a     design  an alignment  to cry          of   my   heart        to
E--------------------------------------------------------------------------------------------------|
C--------------------------------------------------------------------------------------------------|
G--0-----0-----0-----0-----0-----0-----0-----0-----0-----0-----0-----0-----0-----0-----0-----0-----|
C--0-----0-----0-----0-----0-----0-----0-----0-----7-----7-----7-----7-----9-----9-----7-----7-----|
A--2-----2-----2-----2-----3-----3-----3-----3-----x-----x-----x-----x-----x-----x-----x-----x-----|
C--0-----0-----0-----0-----0-----0-----0-----0-----7-----7-----7-----7-----9-----9-----7-----7-----|

                                                (Strum openly from here)
  See     the beauty of  love     as  it was     made         to          be
E--------------------------------------------------0-----------0-----------0-----------------------|
C--------------------------------------------------0-----------0-----------0-----------------------|
G--0-----0-----0-----0-----0-----0-----0-----0-----0-----------0-----------0-----------------------|
C--5-----5-----5-----5-----0-----0-----0-----0-----4-----------5-----------0-----------------------|
A--x-----x-----x-----x-----5-----5-----5-----5-----0-----------x-----------3-----------------------|
C--5-----5-----5-----5-----0-----0-----0-----0-----------------5-----------0-----------------------|

E--0-----0-----0-----0--0-----0--0-----0-----0-----0-----0-----0-----0--0-----0--0-----0-----0-----|
C--0-----0-----0-----0--0-----0--0-----0-----0-----0-----0-----0-----0--0-----0--0-----0-----0-----|
G--0-----0-----0-----0--0-----0--0-----0-----0-----0-----0-----0-----0--0-----0--0-----0-----0-----|
C--0-----0-----0-----0--0-----0--0-----0-----0-----0-----0-----0-----0--0-----0--0-----0-----0-----|
A--3-----3-----3-----3--3-----3--3-----3-----3-----3-----3-----3-----3--3-----3--3-----3-----3-----|
C--0-----0-----0-----0--0-----0--0-----0-----0-----0-----0-----0-----0--0-----0--0-----0-----0-----|

   Love    it will not   betray you,   dismay or  enslave  you   it  will  set       you
E--0-----0-----0-----0-----0-----0-----0-----0-----0-----0-----0-----0-----0-----0-----0-----0-----|
C--0-----0-----0-----0-----0-----0-----0-----0-----0-----0-----0-----0-----0-----0-----0-----0-----|
G--0-----0-----0-----0-----0-----0-----0-----0-----0-----0-----0-----0-----0-----0-----0-----0-----|
C--0-----0-----0-----0-----0-----0-----0-----0-----7-----7-----7-----7-----9-----9-----7-----7-----|
A--2-----2-----2-----2-----3-----3-----3-----3-----x-----x-----x-----x-----x-----x-----x-----x-----|
C--0-----0-----0-----0-----0-----0-----0-----0-----7-----7-----7-----7-----9-----9-----7-----7-----|

  Free     be more like the man          you were  made       to          be
E--0-----0-----0-----0-----0-----0-----0-----0-----0-----0-----0-----0-----0-----0-----0-----0--0--|
C--0-----0-----0-----0-----0-----0-----0-----0-----0-----0-----0-----0-----0-----0-----0-----0--0--|
G--0-----0-----0-----0-----0-----0-----0-----0-----0-----0-----0-----0-----0-----0-----0-----0--0--|
C--5-----5-----5-----5-----0-----0-----0-----0-----4-----4-----5-----5-----0-----0-----0-----0--0--|
A--x-----x-----x-----x-----5-----5-----5-----5-----0-----0-----x-----x-----3-----3-----3-----3--3--|
C--5-----5-----5-----5-----0-----0-----0-----0-----------------5-----5-----0-----0-----0-----0--0--|

E-----0--0-----0-----0-----|
C-----0--0-----0-----0-----|
G-----0--0-----0-----0-----|
C-----0--0-----0-----0-----|
A-----3--3-----3-----3-----|
C-----0--0-----0-----0-----|

   There     is    a     design  an alignment  to cry          of   my   heart        to
E--0-----0-----0-----0-----0-----0-----0-----0-----0-----0-----0-----0-----0-----0-----0-----0-----|
C--0-----0-----0-----0-----0-----0-----0-----0-----0-----0-----0-----0-----0-----0-----0-----0-----|
G--0-----0-----0-----0-----0-----0-----0-----0-----0-----0-----0-----0-----0-----0-----0-----0-----|
C--0-----0-----0-----0-----0-----0-----0-----0-----7-----7-----7-----7-----9-----9-----7-----7-----|
A--2-----2-----2-----2-----3-----3-----3-----3-----x-----x-----x-----x-----x-----x-----x-----x-----|
C--0-----0-----0-----0-----0-----0-----0-----0-----7-----7-----7-----7-----9-----9-----7-----7-----|

  See     the beauty of  love     as  it was     made         to          be
E--0-----0-----0-----0-----0-----0-----0-----0-----0-----0-----0-----0-----0-----0-----0-----0--0--|
C--0-----0-----0-----0-----0-----0-----0-----0-----0-----0-----0-----0-----0-----0-----0-----0--0--|
G--0-----0-----0-----0-----0-----0-----0-----0-----0-----0-----0-----0-----0-----0-----0-----0--0--|
C--5-----5-----5-----5-----0-----0-----0-----0-----4-----4-----5-----5-----0-----0-----0-----0--0--|
A--x-----x-----x-----x-----5-----5-----5-----5-----0-----0-----x-----x-----3-----3-----3-----3--3--|
C--5-----5-----5-----5-----0-----0-----0-----0-----------------5-----5-----0-----0-----0-----0--0--|

E-----0--0-----0-----0-----0-----0-----0-----0-----0-----0-----0-----0-----|
C-----0--0-----0-----0-----0-----0-----0-----0-----0-----0-----0-----0-----|
G-----0--0-----0-----0-----0-----0-----0-----0-----0-----0-----0-----0-----|
C-----0--0-----0-----0-----0-----0-----0-----0-----0-----0-----0-----0-----|
A-----3--3-----3-----3-----3-----3-----5-----5-----7-----7-----7-----7-----|
C-----0--0-----0-----0-----0-----0-----0-----0-----0-----0-----0-----0-----|

   Love    it will not   betray you,   dismay or  enslave  you   it  will  set       you
E--0-----0-----0-----0-----0-----0-----0-----0-----0-----0-----0-----0-----0-----0-----0-----0-----|
C--0-----0-----0-----0-----0-----0-----0-----0-----0-----0-----0-----0-----0-----0-----0-----0-----|
G--0-----0-----0-----0-----0-----0-----0-----0-----0-----0-----0-----0-----0-----0-----0-----0-----|
C--0-----0-----0-----0-----0-----0-----0-----0-----7-----7-----7-----7-----9-----9-----7-----7-----|
A--2-----2-----2-----2-----3-----3-----3-----3-----x-----x-----x-----x-----x-----x-----x-----x-----|
C--0-----0-----0-----0-----0-----0-----0-----0-----7-----7-----7-----7-----9-----9-----7-----7-----|

  Free     be more like the man          you were  made       to          be
E--0-----0-----0-----0-----0-----0-----0-----0-----0-----0-----0-----0-----0-----0-----0-----0--0--|
C--0-----0-----0-----0-----0-----0-----0-----0-----0-----0-----0-----0-----0-----0-----0-----0--0--|
G--0-----0-----0-----0-----0-----0-----0-----0-----0-----0-----0-----0-----0-----0-----0-----0--0--|
C--5-----5-----5-----5-----0-----0-----0-----0-----4-----4-----5-----5-----0-----0-----0-----0--0--|
A--x-----x-----x-----x-----5-----5-----5-----5-----0-----0-----x-----x-----3-----3-----3-----3--3--|
C--5-----5-----5-----5-----0-----0-----0-----0-----------------5-----5-----0-----0-----0-----0--0--|

E-----0--0-----0-----0-----|
C-----0--0-----0-----0-----|
G-----0--0-----0-----0-----|
C-----0--0-----0-----0-----|
A-----3--3-----3-----3-----|
C-----0--0-----0-----0-----|

   There     is    a     design  an alignment  to cry          of   my   heart        to
E--0-----0-----0-----0-----0-----0-----0-----0-----0-----0-----0-----0-----0-----0-----0-----0-----|
C--0-----0-----0-----0-----0-----0-----0-----0-----0-----0-----0-----0-----0-----0-----0-----0-----|
G--0-----0-----0-----0-----0-----0-----0-----0-----0-----0-----0-----0-----0-----0-----0-----0-----|
C--0-----0-----0-----0-----0-----0-----0-----0-----7-----7-----7-----7-----9-----9-----7-----7-----|
A--2-----2-----2-----2-----3-----3-----3-----3-----x-----x-----x-----x-----x-----x-----x-----x-----|
C--0-----0-----0-----0-----0-----0-----0-----0-----7-----7-----7-----7-----9-----9-----7-----7-----|

  See     the beauty of  love     as  it was     made         to          be
E--0-----0-----0-----0-----0-----0-----0-----0-----0-----------0-----------0-----------------------|
C--0-----0-----0-----0-----0-----0-----0-----0-----0-----------0-----------0-----------------------|
G--0-----0-----0-----0-----0-----0-----0-----0-----0-----------0-----------0-----------------------|
C--5-----5-----5-----5-----0-----0-----0-----0-----4-----------5-----------0-----------------------|
A--x-----x-----x-----x-----5-----5-----5-----5-----0-----------x-----------3-----------------------|
C--5-----5-----5-----5-----0-----0-----0-----0-----------------5-----------0-----------------------|


Thanks for reading, now folk it right up.

Dave


Tablature legend (just incase your new to this):
\ - Slide down
/ - Slide up
h - Hammer on
p - Pull off
P.M - Palm mute
x - Mute string (with finger)
( ) - Ghost note
Tap to rate this tab
 
# A B C D E F G H I J K L M N O P Q R S T U V W X Y Z