Song name
# A B C D E F G H I J K L M N O P Q R S T U V W X Y Z

Mumford And Sons - Banjolin Mandolin tab

-----------------------------------------------------------------------------
			     Banjolin Song - Mumford & Sons
-----------------------------------------------------------------------------

Tabbed by: saintonge
Email: seriousdude111@gmail.com

This is the mandolin tab, since I couldnt find it tabbed right anywhere I decided I 
would post it for you guys :)

Tuning: Mandolin Standard (GDAE)



Intro:

E|-----------------3-|
A|-----------------2-|  x4
D|-----------------0-|
G|-0-5-4-2-0-5-4-2-0-|





Chorus: (Agai---ai-ain, agai---ai-ain) or (Ahhh, ah ah, Ahhh, ah, ah)

   D G C G
E|-2-3-0-3|
A|-0-2-3-2| x2
D|-0-0-2-0|
G|-2-0-0-0|




Verse: (She stole my heart...Or be loved that way again)

E|-------------------|
A|-2-2-2-2-2-2-2-2-2-|  x4
D|-0-0-0-0-0-0-0-0-0-|
G|-0-5-4-2-0-5-4-2-0-|

Note; you can add the 3rd fret on the E string too, but that would mean playing the 2nd 
fret G string with your thumb.


[Chorus]


Bridge: (My eyes shall see... heart shall bleed right again)

   C  Em D  G
E|-0--0--2--3--|
A|-3--2--0--2--| x4
D|-2--5--0--0--|
G|-0--4--2--0--|


[Chorus] Repeat until the end.


Thats pretty much the whole song, Just listen for the strumming since Its mandolin 
strumming afterall.
Tap to rate this tab
# A B C D E F G H I J K L M N O P Q R S T U V W X Y Z