Song name
# A B C D E F G H I J K L M N O P Q R S T U V W X Y Z

Mumford And Sons - Home tab

This is how I play this song in Open D, inspired by lowchord08 (thx).
Capo on 3rd fret. Tabs based on: Capo 3 = 0


Verse:
           I ran   away...      ...shame...             ...close...
D |--------------------------------------------------------------------|
A |--------------------------------------------------------------------|
F#|----0---0---0---0---5---5---5---5---0---0---0---0---0---0---7---7---|
D |--------------------------------------------------------------------|
A |--------------------------------------------------------------------|
D |--9---9---9---9---5---5---5---5---0---0---0---0---0---0---7---7-----|


 ...came     as    I crossed   ...road....
D |--------------------------------------------------------------------|
A |--------------------------------------------------------------------|
F#|----0---0---0---0---5---5---5---5---0---0---0---0---0---0---0---0---|
D |--------------------------------------------------------------------|
A |--------------------------------------------------------------------|
D |--9---9---9---9---5---5---5---5---0---0---0---0---0---0---0---0-----|


Bridge:
  
      spin...      ...pin me... ...cover...    ...bed...
D |--------------------------------------------------------------------|
A |--------------------------------------------------------------------|
F#|----3---3---3---3---5---5---5---5---0---0---0---0---0---0---0---0---|
D |--------------------------------------------------------------------|
A |--------------------------------------------------------------------|
D |--4---4---4---4---5---5---5---5---0---0---0---0---7---7---8---8-----|

      spin...      ...pin..doooooooown...                 ...I'll be...
D |--------------------------------------------------------------------|
A |--------------------------------------------------------------------|
F#|----0---0---0---0---5---5---5---5---0---0---0---0---0---0---0---0---|
D |--------------------------------------------------------------------|
A |--------------------------------------------------------------------|
D |--9---9---9---9---5---5---5---5---0---0---0---0---0---0---0---0-----|


Chorus:

...Home                         ...while...             ...lover...
D |--------------------------------------------------------------------|
A |--------------------------------------------------------------------|
F#|----7---7---7---7---7---7---7---7---5---5---5---5---5---5---5---5---|
D |--------------------------------------------------------------------|
A |--------------------------------------------------------------------|
D |--7---7---7---7---7---7---7---7---5---5---5---5---5---5---5---5-----|


D |--------------------------------------------------------------------|
A |--------------------------------------------------------------------|
F#|----0---0---0---0---0---0---0---0---0---0---0---0---0---0---0---0---|
D |--------------------------------------------------------------------|
A |--------------------------------------------------------------------|
D |--0---0---0---0---0---0---0---0---0---0---0---0---0---0---0---0-----|
Tap to rate this tab
# A B C D E F G H I J K L M N O P Q R S T U V W X Y Z