Song name
# A B C D E F G H I J K L M N O P Q R S T U V W X Y Z

Mumford And Sons - Little Lion Man tab

Little Lion Man - Mumford & Sons
From Sigh No More

Open C variant tuning - (low to high) CACGCE

E  stays as      E
B  goes up to    C
G  stays as      G
D  goes down to  C
A  stays as      A
E  goes down to  C


A note about the chords, there is a pair of shapes which are pretty much
interchangeable. The top 3 strings are always open in these shapes. I've chosen
to demonstrate it on the 5th fret (with the alt. tuning and capo it's a Bb) but
you can apply it to any of the chords in this song. The shapes are:

E--0--|        E--0--|
C--0--|        C--0--|
G--0--|        G--0--|
C--5--|  and   C--0--|
A--x--|        A--8--|
C--5--|        C--5--|

I've noted my personal preference in these tabs, but feel free to use either of
these shapes wherever either of them are noted. Although I believe Marcus Mumford's
preference is generally the second shape, there's only 1 extra note in it and it
doesn't make enough of a tonal difference for it to really matter. The other shape
is just a little easier on the fingers. Well anyway, take your pick.

Just another note, I've pointed out the beat only in the intro just for clarity, the
bar starts on the third strum just in case it might help when slipping into the rhythm.


Capo 5th Fret


Intro

P.M                  ....         ....         ....         ....
  Beat               1            2            3            4
E--------------0-0-|-0--0-----0-0-0--0-----0-0-0--0-----0-0-0--0-----0-0-|
C--------------0-0-|-0--0-----0-0-0--0-----0-0-0--0-----0-0-0--0-----0-0-|
G--------------2-2-|-2--2-----2-2-2--2-----2-2-2--2-----2-2-2--2-----2-2-|
C----------------0-|-0--0-------0-0--0-------0-0--0-------0-0--0-------0-|
A------------------|-0--0---------0--0---------0--0---------0--0---------|
C------------------|-----------------------------------------------------|

E-----0-----0-0-0--0--0--0------0-----0-0----0-----0-0-|
C-----0-----0-0-0--0--0--0------0-----0-0----0-----0-0-|
G--0--0-----0-0-2--0--0--0---0--0-----0-0-0--0-----0-0-|
C--0--0-----0-0-0--0--2--0---0--0-----0-0-0--0-----0-0-|
A--3--3-----3-3-3--3--3--3---3--3-----3-3-3--3-----3-3-|
C--0--0-----0-0-0--0--0--0---0--0-----0-0-0--0-----0-0-|

P.M....         ...          ....         ....
E--0--0-----0-0-0---0--0-0---0--0-----0-0-0--0-----0-0-|
C--0--0-----0-0-0---0--0-0---0--0-----0-0-0--0-----0-0-|
G--2--2-----2-2-0h2-2--2-2---2--2-----2-2-2--2-----2-2-|
C--0--0-------0-0---0--0-0---0--0-------0-0--0-------0-|
A-----0---------0---0--0-0------0---------0--0---------|
C------------------------------------------------------|

E-----0-----0-0-0--0--0--0------0-----0-0----0-----0-0-|
C-----0-----0-0-0--0--0--0------0-----0-0----0-----0-0-|
G--0--0-----0-0-2--0--0--0---0--0-----0-0-0--0-----0-0-|
C--0--0-----0-0-0--0--2--0---0--0-----0-0-0--0-----0-0-|
A--3--3-----3-3-3--3--3--3---3--3-----3-3-3--3-----3-3-|
C--0--0-----0-0-0--0--0--0---0--0-----0-0-0--0-----0-0-|


Verse

P.M Throughout verse
E--0--0-----0-0-0--0-----0-0-0--0-----0-0-0--0-----0-0-|
C--0--0-----0-0-0--0-----0-0-0--0-----0-0-0--0-----0-0-|
G--2--2-----2-2-2--2-----2-2-2--2-----2-2-2--2-----2-2-|
C--0--0-------0-0--0-------0-0--0-------0-0--0-------0-|
A--0--0---------0--0---------0--0---------0--0---------|
C------------------------------------------------------|

E-----0-----0-0----0-----0-0----0-----0-0----0-----0-0-|
C-----0-----0-0----0-----0-0----0-----0-0----0-----0-0-|
G--0--0-----0-0-0--0-----0-0-0--0-----0-0-0--0-----0-0-|
C--0--0-----0-0-0--0-----0-0-0--0-----0-0-0--0-----0-0-|
A--3--3-----3-3-3--3-----3-3-3--3-----3-3-3--3-----3-3-|
C--0--0-----0-0-0--0-----0-0-0--0-----0-0-0--0-----0-0-| x 2


E-----0-----0-0----0-----0-0----0-----0-0-0-0-0-0--0-0-|
C-----0-----0-0----0-----0-0----0-----0-0-0-0-0-0--0-0-|
G--0--0-----0-0-0--0-----0-0-0--0-----0-0-0-0-0-0--0-0-|
C--7--7-----7-7-7--7-----7-7-5--5-----5-5-4-x-x-2--2-2-|
A--x--x-----x-x-x--x-----x-x-x--x-----x-x-x-x-x-x--x-x-|
C--7--7-----7-7-7--7-----7-7-5--5-----5-5-4-x-x-2--2-2-|

E-----0-----0-0----0-----0-0----0-----0-0----0-----0-0-|
C-----0-----0-0----0-----0-0----0-----0-0----0-----0-0-|
G--0--0-----0-0-0--0-----0-0-0--0-----0-0-0--0-----0-0-|
C--0--0-----0-0-0--0-----0-0-0--0-----0-0-0--0-----0-0-|
A--3--3-----3-3-3--3-----3-3-3--3-----3-3-3--3-----3-3-|
C--0--0-----0-0-0--0-----0-0-0--0-----0-0-0--0-----0-0-| x 2


Chorus

E--0------------0------------0-------------------------|
C--0------------0------------0-------------------------|
G--2------------0------------0-------------------------|
C--0------------5------------0-------------------------|
A--0------------x------------3-------------------------|
C---------------5------------0-------------------------| x 3

E-----0-----0-0----0-----0-0-0-------------------------|
C--0--0-----0-0-0--0-----0-0-0-------------------------|
G--0--0-----0-0-0--0-----0-0-0-------------------------|
C--2--2-----2-2-2--2-----2-2-2-------------------------|
A--x--x-----x-x-x--x-----x-x-x-------------------------|
C--2--2-----2-2-2--2-----2-2-2-------------------------|


Post-Chorus

E--0--0-----0-0-0--0-----0-0-0--0-----0-0-0--0-----0-0-|
C--0--0-----0-0-0--0-----0-0-0--0-----0-0-0--0-----0-0-|
G--2--2-----2-2-2--2-----2-2-2--2-----2-2-2--2-----2-2-|
C--0--0-------0-0--0-------0-0--0-------0-0--0-------0-|
A--0--0---------0--0---------0--0---------0--0---------|
C------------------------------------------------------|

E-----0-----0-0-0--0--0--0------0-----0-0----0-----0-0-|
C-----0-----0-0-0--0--0--0------0-----0-0----0-----0-0-|
G--0--0-----0-0-2--0--0--0---0--0-----0-0-0--0-----0-0-|
C--0--0-----0-0-0--0--2--0---0--0-----0-0-0--0-----0-0-|
A--3--3-----3-3-3--3--3--3---3--3-----3-3-3--3-----3-3-|
C--0--0-----0-0-0--0--0--0---0--0-----0-0-0--0-----0-0-| x 2


Verse


Second Chorus x2

E--0-0------0-0-0--0-----0-0-0--0-----0-0-0--0-----0-0-|
C--0-0------0-0-0--0-----0-0-0--0-----0-0-0--0-----0-0-|
G--2-2------2-2-0--0-----0-0-0--0-----0-0-0--0-----0-0-|
C--0-0------0-0-5--5-----5-5-0--0-----0-0-0--0-----0-0-|
A--0-0------0-0-x--x-----x-x-3--3-----3-3-3--3-----3-3-|
C---------------5--5-----5-5-0--0-----0-0-0--0-----0-0-| x 3

E-----0-----0-0----0-----0-0----0-----0-0----0-----0-0-|
C--0--0-----0-0-0--0-----0-0-0--0-----0-0-0--0-----0-0-|
G--0--0-----0-0-0--0-----0-0-0--0-----0-0-0--0-----0-0-|
C--2--2-----2-2-2--2-----2-2-2--2-----2-2-2--2-----2-2-|
A--x--x-----x-x-x--x-----x-x-x--x-----x-x-x--x-----x-x-|
C--2--2-----2-2-2--2-----2-2-2--2-----2-2-2--2-----2-2-|


Second Post-Chorus

E--0--0--0--0--0--0--0--0--0--0--0--0--0--0--0--0--|
C--0--0--0--0--0--0--0--0--0--0--0--0--0--0--0--0--|
G--2--2--2--2--2--2--2--2--2--2--2--2--2--2--2--2--|
C--0--0--0--0--0--0--0--0--0--0--0--0--0--0--0--0--|
A--0--0--0--0--0--0--0--0--0--0--0--0--0--0--0--0--|
C--------------------------------------------------|

E--0--0--0--0--0--0--0--0--0--0--0--0--0--0--0--0--|
C--0--0--0--0--0--0--0--0--0--0--0--0--0--0--0--0--|
G--0--0--0--0--0--0--0--0--0--0--0--0--0--0--0--0--|
C--0--0--0--0--0--0--0--0--0--0--0--0--0--0--0--0--|
A--3--3--3--3--3--3--3--3--3--3--3--3--3--3--3--3--|
C--0--0--0--0--0--0--0--0--0--0--0--0--0--0--0--0--| x 2


Middle Section
P.M...................................................
E-----------------------------------------------------|
C-----------------------------------------------------|
G-----------------------------------------------------|
C--0--0--0--0--0--0--0--0--0--0--0--0--0--0--0--0--0--|
A--5--5--5--5--7--7--7--7--8--8--8--8--8--8--8--8--8--|
C--2--2--2--2--4--4--4--4--5--5--5--5--5--5--5--5--5--| x 2

E--0--0--0--0--0--0--0--0--0--0--0--0--0--0--0--0--0--|
C--0--0--0--0--0--0--0--0--0--0--0--0--0--0--0--0--0--|
G--0--0--0--0--0--0--0--0--0--0--0--0--0--0--0--0--0--|
C--0--0--0--0--0--0--0--0--0--0--0--0--0--0--0--0--0--|
A--5--5--5--5--7--7--7--7--8--8--8--8--8--8--8--8--8--|
C--2--2--2--2--4--4--4--4--5--5--5--5--5--5--5--5--5--| x 6


Final Chorus

E--0-------------------------0--0-----0-0-0--0-----0-0-|
C--0-------------------------0--0-----0-0-0--0-----0-0-|
G--2-------------------------0--0-----0-0-0--0-----0-0-|
C--0-------------------------0--0-----0-0-0--0-----0-0-|
A--0-------------------------3--3-----3-3-3--3-----3-3-|
C----------------------------0--0-----0-0-0--0-----0-0-|

E--0-0------0-0-0--0-----0-0-0--0-----0-0-0--0-----0-0-|
C--0-0------0-0-0--0-----0-0-0--0-----0-0-0--0-----0-0-|
G--2-2------2-2-0--0-----0-0-0--0-----0-0-0--0-----0-0-|
C--0-0------0-0-5--5-----5-5-0--0-----0-0-0--0-----0-0-|
A--0-0------0-0-x--x-----x-x-3--3-----3-3-3--3-----3-3-|
C---------------5--5-----5-5-0--0-----0-0-0--0-----0-0-| x 2

E-----0-----0-0----0-----0-0----0-----0-0----0-----0-0-|
C--0--0-----0-0-0--0-----0-0-0--0-----0-0-0--0-----0-0-|
G--0--0-----0-0-0--0-----0-0-0--0-----0-0-0--0-----0-0-|
C--2--2-----2-2-2--2-----2-2-2--2-----2-2-2--2-----2-2-|
A--x--x-----x-x-x--x-----x-x-x--x-----x-x-x--x-----x-x-|
C--2--2-----2-2-2--2-----2-2-2--2-----2-2-2--2-----2-2-|

E--0---------------------------------------------------|
C--0---------------------------------------------------|
G--2---------------------------------------------------|
C--0---------------------------------------------------|
A--0---------------------------------------------------|
C------------------------------------------------------|

E------------------------------------------------------|
C------------------------------------------------------|
G------------------------------------------------------|
C------------------------------------------------------|
A------------------------------------------------------|
C------------------------------------------------------|

E------------------------------------------------------|
C------------------------------------------------------|
G------------------------------------------------------|
C------------------------------------------------------|
A------------------------------------------------------|
C------------------------------------------------------|

E------------------------------------------------------|
C------------------------------------------------------|
G------------------------------------------------------|
C------------------------------------------------------|
A------------------------------------------------------|
C------------------------------------------------------|

E--0---------------------------------------------------|
C--0---------------------------------------------------|
G--0---------------------------------------------------|
C--0---------------------------------------------------|
A--3---------------------------------------------------|
C--0---------------------------------------------------|


Good luck and I want to hear you strum it like you mean it and don't shy away from the
swears. Sing them loud and enjoy! (unless your mums listening).

Dave


P.S Feel free to email if you've any questions or anything: Big_dave699@hotmail.com,
    Also feel free to check out my version of this song on Youtube if you're interested:
    http://www.youtube.com/watch?v=Whs3MOWCy-M


Guitar Tab Legend (just incase)

h - Hammer on
p - Pull off
x - Finger mute (fretboard hand)
P.M - Palm mute
Tap to rate this tab
# A B C D E F G H I J K L M N O P Q R S T U V W X Y Z