Song name
# A B C D E F G H I J K L M N O P Q R S T U V W X Y Z

Mumford And Sons - Thistle And Weeds tab

-------------------------------------------------------------------------------
                     THISTLE AND WEEDS - Mumford and Sons
-------------------------------------------------------------------------------

Tabbed by: Macheeoo
Email: macheeoo@yahoo.com

Tuning: Open D minor (DADFad)


Intro/Verse:   x2
"Spare me you judgments and spare me you dreams..."
d|--12------12------7------7------5------5------7-------7------|
a|-------------------------------------------------------------|
F|-------------------------------------------------------------|
D|-------------------------------------------------------------|
A|-------------------------------------------------------------|
D|--12---12----12---7---7-----7---5---5-----5---7---7------7---|

"I sit alone...      ...my mind"
d|--5------5-------     --0-------------|
a|-----------------     ---------0------|
F|-----------------     ----------------|
D|-----------------     ----------------|
A|----------------- x4  ----------------|   x4
D|--5---5----5-----     --0---0-----0---|



Piano Riff:    x2
d|--12-12-10-10-9-9-8-8-7-7-5-3-5-3-3-2-3-2--0~-----|
a|-------------------------------------------0~-----|
F|-------------------------------------------0~-----|
D|-------------------------------------------0~-----|
A|-------------------------------------------0~-----|
D|--0--0--0--0--0-0-0-0-0-0-0-0-0-0-0-0-0-0--0~-----|


REPEAT VERSE: "Corrupted by the simple..."


CHORUS: 
  "Plant you hope with good seeds..."                        "Rain down, rain..."
d|--7------7------5------5------8------8------7------7-------|-8------8-----0-|
a|-----------------------------------------------------------|--------------0-|
F|-----------------------------------------------------------|--------------0-|
D|-----------------------------------------------------------|--------------0-|
A|---------------------------------------------------------x2|--------------0-|
D|--0---0-----0---0---0-----0---0---0-----0---0---0-----0----|-0---0-----0--0-|

BRIDGE/INSTRUMENTAL: (Strum chords)

   "I  will hold on...   ...hoooollddd"
d|--7---5---8----7----------8----10------|
a|--0---0---0----0----------0----0-------|
F|--0---0---0----0----------0----0-------|
D|--0---0---0----0----------0----0-------|
A|--0---0---0----0----------0----0-------|
D|--0---0---0----0----------0----0-------|

(More emphasis on middle D string, STRUM STRONG!)

   "I WILL HOLD ON...    ...HOOOOLLDDD... I  WILL HOLD ON...   HOOOOLLDDD"
d|--7---5---8----7----------8----10-------12-10---14---12------14---------0~-|
a|--0---0---0----0----------0----0--------0--0----0----0-------0----------0~-|
F|--0---0---0----0----------0----0--------0--0----0----0-------0----------0~-|
D|--7---5---8----7----------8----10-------12-10---14---12------14---------0~-|
A|--0---0---0----0----------0----0--------0--0----0----0-------0----------0~-|
D|--0---0---0----0----------0----0--------0--0----0----0-------0----------0~-|

HARMONICS: (Strum)
d|--<12>----<7>----0~---|
a|--<12>----<7>----0~---|
F|--<12>----<7>----0~---|
D|--<12>----<7>----0~---|
A|--<12>----<7>----0~---|
D|--<12>----<7>----0~---|

VERSE:  "I begged you to hear me..."

CHORUS: "Plant your hope with good..."
        "Rain down... me"
(End on Open D minor chord)


END!!!


*Lyrics/Song Order*

VERSE:
Spare me your judgements and spare me your dreams
Cause recently mine have been tearing my seams
I sit alone in this winter clarity which clouds my mind

Alone in the wind and the rain you left me
It's getting dark darling, too dark to see
And I'm on my knees, and your faith in shreds, it seems

PIANO RIFF:

VERSE:
Corrupted by the simple sniff of riches blown
I know you have felt much more love than you've shown
And I'm on my knees and the water creeps to my chest

CHORUS:
But plant your hope with good seeds
Don't cover yourself with thistle and weeds
Rain down, rain down on me
Look over your hills and be still
The sky above us shoots to kill
Rain down, rain down on me

BRIDGE/INSTRUMENTAL: 
But I will hold on
I will hold on hope

VERSE:
I begged you to hear me, there's more than flesh and bones
Let the dead bury the dead, they will come out in droves
But take the spade from my hands and fill in the holes you've made

CHORUS:
But plant your hope with good seeds
Don't cover yourself with thistle and weeds
Rain down, rain down on me
Tap to rate this tab
# A B C D E F G H I J K L M N O P Q R S T U V W X Y Z