Song name
# A B C D E F G H I J K L M N O P Q R S T U V W X Y Z

Mumford And Sons - The Cave tab

This is how I play it, i learned this by ear and I find it most accurate and pleasing to 
the ears!
Should be easy..



E-----------------------------------------|
B-----------------------------------------|
G-----------0---0---0---------------------|
D-4-2-0----0-0-0-0-0-0--------------------|
A-------0-2---2---0-----------------------|
E-----------------------------------------|
(PLAY 3 TIMES)
(CONTINUE WITH THE BELOW)
E-----------------------------------------|
B-----------------------------------------|
G---0----0----0---------------------------|
D--0-0--0-0--0-0-5-0----------------------|
A----------------5-0----------------------|
E-3----0----0-----------------------------|
Tap to rate this tab
# A B C D E F G H I J K L M N O P Q R S T U V W X Y Z