Song name
# A B C D E F G H I J K L M N O P Q R S T U V W X Y Z

Mumford And Sons - Ghosts That We Knew tab

CAPO ON 5

(INTRO)
E|------------------|-------------|---------|-----------|
B|--------0-------0-|-------------|---------|-----------|
G|----0-------0-----|--4--4--4--4-|---7--7--|---11--11--|
D|------------------|-------------|---------|-----------|
A|------------------|-------------|---------|-----------|
E|--0---0---0---0---|-3--3--3--3--|--7--7---|--10--10---|

E|---------------------|----------|--------|-------------------------|
B|---------------------|----------|--------|-------------------------|
G|---12--12--12--12----|---11--11-|---9--9-|--4--4--4--4--4--4--4--4-|
D|---------------------|----------|--------|-------------------------|
A|---------------------|----------|--------|-------------------------|
E|-12--12--12--12------|--10--10--|--8--8--|-3--3--3--3--3--3--3--3--|

(VERSE 1)

E|--------------|---------|-----------|---------------------------------|
B|--------------|---------|-----------|---------------------------------|
G|--4--4--4--4--|---7--7--|---11--11--|--12--12--12--12--12--12--12--12-|
D|--------------|---------|-----------|---------------------------------|
A|--------------|---------|-----------|---------------------------------|
E|-3--3--3--3---|--7--7---|--10--10---|-12--12--12--12--12--12--12--12--|

E|---------|--------|-------------------------------------|
B|---------|--------|-------------------------------------|
G|--11--11-|---9--9-|--4--4--4--4--4--4--4--4--4--4--4--4-|
D|---------|--------|-------------------------------------|
A|---------|--------|-------------------------------------|
E|-10--10--|--8--8--|-3--3--3--3--3--3--3--3--3--3--3--3--|

You saw my pain, washed out in the rain
Broken glass, saw the blood run from my veins
But you saw no fault no crack in my heart
And you kneel beside my hope torn apart

(PRE-CHORUS)
E|-----|-----|-----|-----|-----|-----|----------------|
B|-----|-----|-----|-----|-----|-----|-----|--0h1p0---|
G|--2--|-----|--2--|-----|-----|--2--|----------------|
D|--1--|--2--|--1--|--2--|-----|-----|----------------|
A|--2--|--2--|--2--|--2--|-----|-----|----------------|
E|-----|-----|-----|-----|--3--|--2--|--3-------------|

But the ghosts that we knew will flicker from you
And we'll live a long life


CHORUS: (pluck strings)
E|-----|-----|-----|-----|-----|-----|-----|
B|--1--|-----|-----|-----|--1--|-----|-----|
G|--0--|--0--|--2--|--0--|--0--|--0--|--2--|
D|-----|--0--|--0--|--0--|-----|--0--|--0--|
A|--3--|-----|--x--|-----|--3--|-----|--x--|
E|--x--|--3--|--2--|--3--|--x--|--3--|--2--|

So give me hope in the darkness that I will see the light
Cause oh that gave me such a fright

E|-----|-----|-----|-----|-----|-----|--------------------------|
B|-----|-----|--1--|-----|--1--|-----|--------0---------------0-|
G|--0--|--2--|--2--|--0--|--2--|--2--|---0------------0---0-----|
D|--2--|--0--|-----|-----|-----|--0--|------------0-------------|
A|--2--|-----|--3--|-----|--3--|-----|--------------------------|
E|-----|--2--|--x--|--3--|--x--|--2--|--0---0---0---0---0---0---|

But I will hold as long as you like
Just promise me we'll be alright

(VERSE 2)

E|--------------|---------|-----------|---------------------------------|
B|--------------|---------|-----------|---------------------------------|
G|--4--4--4--4--|---7--7--|---11--11--|--12--12--12--12--12--12--12--12-|
D|--------------|---------|-----------|---------------------------------|
A|--------------|---------|-----------|---------------------------------|
E|-3--3--3--3---|--7--7---|--10--10---|-12--12--12--12--12--12--12--12--|

E|---------|--------|-------------------------------------|
B|---------|--------|-------------------------------------|
G|--11--11-|---9--9-|--4--4--4--4--4--4--4--4--4--4--4--4-|
D|---------|--------|-------------------------------------|
A|---------|--------|-------------------------------------|
E|-10--10--|--8--8--|-3--3--3--3--3--3--3--3--3--3--3--3--|

So lead me back turn south from that place
And close my eyes from my recent disgrace
Cause you know my call we'll share my all
Now children come and they will hear me roar

CHORUS: (pluck strings)
E|-----|-----|-----|-----|-----|-----|-----|
B|--1--|-----|-----|-----|--1--|-----|-----|
G|--0--|--0--|--2--|--0--|--0--|--0--|--2--|
D|-----|--0--|--0--|--0--|-----|--0--|--0--|
A|--3--|-----|-----|-----|--3--|-----|-----|
E|-----|--3--|--2--|--3--|-----|--3--|--2--|

So give me hope in the darkness that I will see the light
Cause oh that gave me such a fright

E|-----|-----|-----|-----|-----|-----|--------------------------|
B|-----|-----|--1--|-----|--1--|-----|--------0---------------0-|
G|--0--|--2--|--2--|--0--|--2--|--2--|---0------------0---0-----|
D|--2--|--0--|-----|-----|-----|--0--|------------0-------------|
A|--2--|-----|--3--|-----|--3--|-----|--------------------------|
E|-----|--2--|-----|--3--|-----|--2--|--0---0---0---0---0---0---|

But I will hold as long as you like
Just promise me we'll be alright

(BRIDGE:)(x4) (Start strumming)
E|-----|-----|--3--|
B|-----|--1--|-----|
G|-----|--2--|-----|
D|--2--|-----|-----|
A|--2--|--3--|--2--|
E|-----|-----|--3--|

But hold me still bury my heart on the cold
And hold me still bury my heart on the cold

CHORUS:
E|-----|--3--|-----|--3--|-----|--3--|-----|
B|--1--|-----|-----|-----|--1--|-----|-----|
G|--0--|-----|--2--|-----|--0--|-----|--2--|
D|--2--|-----|-----|-----|--2--|-----|-----|
A|--3--|--2--|--x--|--2--|--3--|--2--|--x--|
E|-----|--3--|--2--|--3--|-----|--3--|--2--|

So give me hope in the darkness that I will see the light
Cause oh that gave me such a fright

E|-----|-----|-----|--3--|-----|-----|-----|
B|-----|-----|--1--|-----|--1--|-----|-----|
G|-----|--2--|--2--|-----|--2--|--2--|-----|
D|--2--|-----|-----|-----|-----|-----|--2--|
A|--2--|-----|--3--|--2--|--3--|-----|--2--|
E|-----|--2--|-----|--3--|-----|--2--|-----|

But I will hold on as long as you like
Just promise me that we'll be alright

POST-CHORUS: (pluck strings)
E|-----|-----|-----|-----|-----|-----|--3--|
B|-----|-----|-----|-----|-----|-----|--3--|
G|--2--|-----|--2--|-----|-----|--2--|--0--|
D|--1--|--2--|--1--|--2--|-----|-----|--0--|
A|--2--|--2--|--2--|--2--|-----|-----|--2--|
E|-----|-----|-----|-----|--3--|--2--|--3--|

But the ghosts that we knew will flicker from you
And we'll live a long life



MEH THIS IS AS GOOD AS I COULD DO... ITS JUST A MATTER OF FINGERING IT PROPERLY... 
LISTEN TO THE SONG TO GET THE NUMBERS RIGHT... SORRY THERE IS NO SOLO

 V-ROCK APPROVED ;)
Tap to rate this tab
# A B C D E F G H I J K L M N O P Q R S T U V W X Y Z