Song name
# A B C D E F G H I J K L M N O P Q R S T U V W X Y Z

Mumford And Sons - Learn Me Right tab

Mumford and Sons (with Birdy) - Learn Me Right


Capo on 2nd Fret

Intro:
  C                       G           C
e-3-----1-----0-----1-0---------0-----0-------0-1-|
B-------------------------3-------3---------3-----|
G-------------------------------------------------|
D-------------------------------------------------|
A-------------------------------------------------|
E-------------------------------------------------|
  C                       G           C
e-3-----1-----0-----1-0---------0-----------------|
B-------------------------3-------3---1-----------|
G-------------------------------------------------|
D-------------------------------------------------|
A-------------------------------------------------|
E-------------------------------------------------|
  C
e-------1-----0-----------------------------------|
B-------------------3-----1-----------------------|
G-------------------------------------------------|
D-------------------------------------------------|
A-------------------------------------------------|
E-------------------------------------------------|

Verse:
             C
Though I may speak some tongue of old
Or even spit out some holy word
I have no strength with which to speak
When you sit me down and see I'm weak

  C                       G           C
e-3-----1-----0-----1-0---------0-----------------|
B-------------------------3-------3---1-----------|
G-------------------------------------------------|
D-------------------------------------------------|
A-------------------------------------------------|
E-------------------------------------------------|

Chorus:
        F       C
We will run and scream
         F          C
You will dance with me
         F        C                   G
We'll fulfill our dreams and we'll be free

  C
e-0-----------------------------------------1-----|
B-------------------3-----1-----------------------|
G-------------------------------------------------|
D-------------------------------------------------|
A-------------------------------------------------|
E-------------------------------------------------|
  C
e-0-----------------------------------0-----------|
B-------3-----1-----------------3-1---------------|
G-------------------------------------------------|
D-------------------------------------------------|
A-------------------------------------------------|
E-------------------------------------------------|
  C
e-------1-----3-----------------5-----3-----8-----|
B-------------------------------------------------|
G-------------------------------------------------|
D-------------------------------------------------|
A-------------------------------------------------|
E-------------------------------------------------|
  C
e-10-8-----15-----------------|
B-----------------------------|
G-----------------------------|
D-----------------------------|
A-----------------------------|
E-----------------------------|

Chorus:
        F       C
We will run and scream
         F          C
You will dance with me
         F        C                   G
We'll fulfill our dreams and we'll be free
        F         C
We will be who we are
            F        C
And they'll heal our scars
       F        C    G
Sadness, will be far away

  C                       G           C
e-3-----1-----0-----1-0---------0-----0-------0-1-|
B-------------------------3-------3---------3-----|
G-------------------------------------------------|
D-------------------------------------------------|
A-------------------------------------------------|
E-------------------------------------------------|
  C                       G           C
e-3-----1-----0-----1-0---------0-----------------|
B-------------------------3-------3---1-----------|
G-------------------------------------------------|
D-------------------------------------------------|
A-------------------------------------------------|
E-------------------------------------------------|

Verse:
              C
So I had done wrong but you put me right
My judgment burned in the black of night
When I give less than I take
It is my fault my own mistake

Chorus:
        F       C
We will run and scream
         F          C
You will dance with me
         F        C                   G
We'll fulfill our dreams and we'll be free
        F         C
We will be who we are
            F        C
And they'll heal our scars
       F        C    G
Sadness, will be far away

  C                       G           C
e-3-----1-----0-----1-0---------0-----0-------0-1-|
B-------------------------3-------3---------3-----|
G-------------------------------------------------|
D-------------------------------------------------|
A-------------------------------------------------|
E-------------------------------------------------|
  C                       G           C
e-3-----1-----0-----1-0---------0-----------------|
B-------------------------3-------3---1-----------|
G-------------------------------------------------|
D-------------------------------------------------|
A-------------------------------------------------|
E-------------------------------------------------|
Tap to rate this tab
# A B C D E F G H I J K L M N O P Q R S T U V W X Y Z