Song name
# A B C D E F G H I J K L M N O P Q R S T U V W X Y Z

Mumford And Sons - Ghosts That We Knew tab

CAPO ON 5

Key:
| "s" = slide
| "..." = continued next line/from previous line
| "h" = hammer
| "p" = pulloff


[INTRO]

e|------------------------------------|----------------------------------------------|
B|--4-------4-------4-------4---------|-4-------04s7-7---7s12-12--------12-----------|
G|------0-------0-------0-------0-----|-----0-----------------------0----------0-----|
D|------------------------------------|----------------------------------------------|
A|------------------------------------|----------------------------------------------|
E|----3---3---3---3---3---3---3---3---|---3---3--------7---------12--12----12---12---|

e|--------------------------------------------|--------------------------------------|
B|-12---------12---------12s11-11----11s9-9--|--9s4-4---4-------4-------4------------|
G|-------0----------0-------------------------|--------------0-------0-------0-------|
D|--------------------------------------------|--------------------------------------|
A|--------------------------------------------|--------------------------------------|
E|----12---12----12---12----------10--------8|--------3---3---3---3---3---3---3------|


[VERSE 1 (x4)]

e|--------------------------------------------|-------------------------|..
B|4--------4s7-7---7s12-12---------12---------|-12--------12------------|..
G|----0-----------------------0----------0----|-------0----------0------|..
D|--------------------------------------------|-------------------------|..
A|--------------------------------------------|-------------------------|..
E|--3---3--------7---------12---12----12---12|----12---12----12---12----|..

...---------------------|--------------------------------------|
...-12s11-11----11s9-9-|--9s4-4---4-------4-------4------------|
...---------------------|--------------0-------0-------0-------|
...---------------------|--------------------------------------|
...---------------------|--------------------------------------|
...----------10--------8|--------3---3---3---3---3---3---3-----|

You saw my pain, washed out in the rain
Broken glass, saw blood run from my veins
But you saw no fault no cracks in my heart
And you kneel beside my hope torn apart


[PRE-CHORUS]

e|------------------------------------|-------------------------------------|
B|------------------------------------|-------------------------------------|
G|--2-------2-------0-------0---------|--2-------2-------0-------0----------|
D|------2-------2-------2-------2-----|------2-------2-------2-------2------|
A|------------------------------------|-------------------------------------|
E|----0---0---0---0---0---0---0---0--|----0---0---0---0---0---0---0---0-----|

e|------------------------------------|--------------------------------------|
B|------------------------------------|------------------h1-----1p0----------|
G|--0-------0-------2-------2---------|--0-------0---------0-------0---------|
D|------0-------0-------0-------0-----|------0-------0-----------------------|
A|------------------------------------|--------------------------------------|
E|----3---3---3---3---3---3---3---3--|----3---3---3---3------3-------3-------|

But the ghosts that we knew will flicker from you
And we'll live a long life


[CHORUS]

e|------------------|------------------|-------------------|-----------------|
B|----1--------0----|------------------|----1---------0----|-----------------|
G|----0--------0----|----2--------0----|----0---------0----|----2------------|
D|------------------|----0--------0----|-------------------|----0------------|
A|------------------|------------------|-------------------|-----------------|
E|----3--------3----|----3--------3----|----3---------3----|----3------------|

So give me hope in the darkness that I will see the light
Cause oh that gave me such a fright

e|------------------|------------------|------------------|---------------------|
B|----1--------0----|------------------|----1-------------|---------------------|
G|----0--------0----|----2--------0----|----0--------2----|---0-------0---------|
D|------------------|----0--------0----|-------------0----|---0---0-------0-----|
A|------------------|------------------|------------------|---------------------|
E|----3--------3----|----3--------3----|----3--------3----|---3-3---3---3---0---|
                                                                                         
                   * ^This is only half a
But I will hold as long as you like                                                      
      measure! repeat the
Just promise me we'll be alright                                                         
     main riff with the chord
                                                                                         
                     above as many times
                                                                                         
                     as you find necessary!


[VERSE 2 (x4)]

e|--------------------------------------------|-------------------------|..
B|4--------4s7-7---7s12-12---------12---------|-12--------12------------|..
G|----0-----------------------0----------0----|-------0----------0------|..
D|--------------------------------------------|-------------------------|..
A|--------------------------------------------|-------------------------|..
E|--3---3--------7---------12---12----12---12|----12---12----12---12----|..

...---------------------|--------------------------------------|
...-12s11-11----11s9-9-|--9s4-4---4-------4-------4------------|
...---------------------|--------------0-------0-------0-------|
...---------------------|--------------------------------------|
...---------------------|--------------------------------------|
...----------10--------8|--------3---3---3---3---3---3---3-----|

So lead me back turn south from that place
And close my eyes from my recent disgrace
Cause you know my call we'll share my all
Now children come and they will hear me roar


[CHORUS]
e|------------------------------------|---------------------------------------|
B|--2-------2-------0-------0---------|---------------------------------------|
G|------0-------0-------0-------0-----|--2-------2------0------0--------------|
D|------------------------------------|------0-------0------0-------0---------|
A|------------------------------------|---------------------------------------|
E|----3---3---3---3---3---3---3-------|----3---3---3--3---3--3---3---3--------|   (x2)

So give me hope in the darkness that I will see the light
Cause oh that gave me such a fright

e|------------------------------------|--------------------------------------|
B|--2-------2-------0-------0---------|--------------------------------------|
G|------0-------0-------0-------0-----|--2-------2------0------0-------------|
D|------------------------------------|------0-------0------0-------0--------|
A|------------------------------------|--------------------------------------|
E|----3---3---3---3---3---3---3-------|----3---3---3--3---3--3---3---3-------|

e|------------------------------------|--------------------------------------|
B|--2-------2-------------------------|--------------------------------------|
G|------0-------0---2-------2---------|--0-----------------------------------|
D|----------------------0-------0-----|--0-----------------------------------|
A|------------------------------------|--------------------------------------|
E|----3---3---3---3---3---3---3---3---|--3-----------------------------------|

But I will hold as long as you like
Just promise me we'll be alright

[BRIDGE (strumming)]

Chords:
    Em     Em+G    C      C+G      G
e|--0--|--3--|--0--|--3--|--3--|
B|--0--|--3--|--1--|--3--|--3--|
G|--0--|--0--|--0--|--0--|--0--|
D|--2--|--2--|--2--|--2--|--0--|
A|--2--|--2--|--3--|--3--|--2--|
E|--0--|--0--|-----|-----|--3--|

    Em     Em+G    C         C+G             G
But hold me still bury my heart on the cold

    Em     Em+G    C         C+G             G
But hold me still bury my heart on the cold


[CHORUS]
                  C               G                    D                  G
So give me hope in the darkness that I will see the light
          C          G                      D
Cause oh that gave me such a fright
      Em    D         C                G
But I will hold as long as you like
       C                D             G
Just promise me we’ll be alright


[OUTRO]

e|---------|---------|---------|---------|
B|---------|---------|---------|---------|
G|--2---0--|--2---0--|--0---2--|--0------|
D|--2---2--|--2---2--|--0---0--|--0------|
A|---------|---------|---------|---------|
E|--0---0--|--0---0--|--3---3--|--3------|

But the ghosts that we knew will flicker from you
And we'll live a long life
Tap to rate this tab
 
# A B C D E F G H I J K L M N O P Q R S T U V W X Y Z