Song name
# A B C D E F G H I J K L M N O P Q R S T U V W X Y Z

Mumford And Sons - Reminder chords

Highlighted       Show chord diagrams
-------------------------------------------------------------------------------
                          Mumford And Sons - Reminder
-------------------------------------------------------------------------------
Tabbed by: tele.kom
Email: telee.kom@gmail.com

Tunning: Standard
Capo: 2nd fret

Don't take that intro tab literally. Just strum "G" chord and add notes where are 
needed. Same goes to the chords in the song itself, just strum it loosely with 
some hammer ons or pull ofs. Listen to the song and you'll get the idea. 

G:    32000x
C:    33200x
G6:   30200x (use 0h2 on D string)
Em:   02200x
G/F#: 2x003x


Intro
e|----------------------------------------------------------------------------|
B|-----0-0-0-------0-0-0-----0-0-0-----0-0-0----0-0-0-------0-0-0-----0-0-0---|
G|-----0-0-0-------0-0-0-----0-0-0-----0-0-0----0-0-0-------0-0-0-----0-0-0-0-|
D|-----0-0-0--0h2--2-2-2--0--0-0-0-----0-0-0----0-0-0-------0-0-0-----0-0-0---|
A|----------------------------------2------------------0h2--------------------|
E|--3-----------------------------------------3--------------------3----------|

Intro/Riff
e|--------------------------------------------|
B|-----0-0-0-------0-0-0-----0-0-0-----0-0-0--|
G|-----0-0-0-------0-0-0-----0-0-0-----0-0-0--|
D|-----0-0-0--0h2--2-2-2--0--0-0-0-----0-0-0--|
A|----------------------------------2---------|
E|--3-----------------------------------------| 

G            C            G
Don't let me dark in your door
G              C         Em                        G/F#        G  G6  G
Its not what I came here for, no it's not what I came here for
G                    C            G
And I won't hear you cry when I'm gone
G                   C         Em                         G/F#            G  G6  G
I won't know if I'm doing you wrong, I never know if I'm doing you wrong

G          C           G    
A constant reminder of where I can find her
G              C         Em
A light that I give up away
Em          G/F#         G                 C
Its all that I'm asking for, without her I'm lost
G            G/F#      G  RIFF
My love don't fade away

G               C         G
Watch the world tear us apart
G                  C           Em                  G/F#             G  G6  G
A stoic mind and a bleeding heart, you never see my bleeding heart
G                    C            G
And your lights always shinning on
G                       C       Em                           G/F#      G  G6  G           
But iv'e been traveling oh so long, well iv'e been traveling oh so long


G          C           G    
A constant reminder of where I can find her
G              C         Em
A light that I give up away
Em          G/F#         G                 C
Its all that I'm asking for, without her i'm lost
G            G/F#      G 
My love don't fade away
G            G/F#      G 
My love don't fade away
Tap to rate this tab
# A B C D E F G H I J K L M N O P Q R S T U V W X Y Z