Song name
# A B C D E F G H I J K L M N O P Q R S T U V W X Y Z

Mumford And Sons - Roll Away Your Stone tab

Open D Tuning: DADF#AD

Capo 2nd fret

x - Muted string
h - hammeron
p - pulloff
/ - slide

Look at this chart for the chords

 B  B/D B/Gb B/F# Gb   G    A   D
-x--x---x----x----0----0----0---0--|
-5--5---5----5----0----0----0---0--|
-x--x---x----x----0----5----7---0--|
-4--4---4----4----4----5----7---0--|
-2--0---x----x----X----x----x---0--|
-X--0---4----2----4----5----7---0--|

There's a hammer-on thing here and there on the open strings (D-chord)
You'll have to listen for it but it goes like this:

Normal strumming   Faster strumming   Listen to it and you'll get it
 D U D D           D U D U D U
-0-0-0-0-----------0-0-0-0-0-0-----|
-0-0-0-0-----------0-0-0-0-0-0-----|
-0-0-0-0-----------0-0-0-0-0-0-----|
-0-0-0-0-----------0-2-2-0-0-0-----|
-0-0-0-0-----------0-0-0-0-2-0-----|
-0-0-0-0-----------0-0-0-0-0-0-----|

---------------------------------------------------------------------

Intro:

-0h2h4---4/5-4p2p0-0h2h4-------2-2--|
-------0-----------------0h2/5------|
------------------------------------|
------------------------------------|
-------0-----------------0-----0----|
-0-------0---0-----0----------------|

-0h2h4---4/5--4/2p0-0h2h4-------2-2-0----|
-------0------------------0h2/5--------5-|
---------------------------------------0-|
---------------------------------------0-|
--------------------------------0------0-|
-0-----4-4/5--4-----0-----0--------------|

---------------------------------------------------------------------

Strumming pattern for verse is Down Up Down Down x4 for each chord
Palm muting on verse if you like to.

D              G                     D
Roll away your stone, I'll roll away mine

D               G                D
Together we can see what we will find

D               G            D
Don't leave me alone at this time

    A             G                      D       (Single strums here)
For I'm afraid of what I will discover inside

---------------------------------------------------------------------

Chorus: Strumming, Down Down Up Down
You'll have to listen for the changes here.

B             B/D         B/Gb  B/F# D
Darkness is a harsh term, don't you    think?

B              B/D       B/Gb   B/F#  D
And yet it dominates the things I see

Now I will make this very detailed for you:
 (
B: Down Down Up Down Down Down Up
B/D: Down Down Up Down
B/Gb: Down Up
B/F#: Down Up
D: Down Down Up Down

And then there's the hammeron thing.

---------------------------------------------------------------------

Before this, put your finger over the 12th fret relative to capo.
Let your fingers rest on the strings and now strum it and you'll get the thing there.

Strumming pattern: Down Down Up Down

D Gb  G         D      Gb             G  D
Stars hide your fires, these here are my desires
    Gb      G         A
And I won't give them up to you this time around
    D    Gb G       D             Gb          G       D
And soooooo I'll be found with my stake stuck in this ground
Gb          G         A                         D      Gb
Marking the territory of this newly impassioned sooooooul
G         D      Gb             G  D       (and so on, and so on)
Hide your fires, these here are my desires

-------------------------------------------------------------------

Single strums here

    D           D        G        D
And you, you've gone too far this time
    D            G          D
You have neither reason nor rhyme
     D        G         D
With which to take this soul
           A          D
That is so rightfully mine

-------------------------------------------------------------------

Have fun
Tap to rate this tab
 
# A B C D E F G H I J K L M N O P Q R S T U V W X Y Z