Song name
# A B C D E F G H I J K L M N O P Q R S T U V W X Y Z

Mumford And Sons - Not With Haste tab

Open D Tuning: DADF#AD
Capo 2


===INTRO===

|--2----0--|--2s4----------4----------4---------4s2---------|
|----0-----|---------0----------0----------0-----------0----|
|----------|-----------0----------0----------0-----------0--|
|--2----0--|--2s4--4-------4--4-------4--4------4s2--2------|
|----------|------------------------------------------------|
|----------|------------------------------------------------|


|--2p0----------0----------0----------5---------|--4----------2----------|
|---------0----------0----------0----------0----|-------0----------0-----|
|-----------0----------0----------0----------0--|---------0----------0---|
|--2p0--0-------0--0-------0--0-------5--5------|--4--4-------2--2-------|
|-----------------------------------------------|------------------------|
|-----------------------------------------------|------------------------|


===VERSE 1===
(You can keep doing the slides and pull offs if you like,
 but I stop notating them.)

|--0----------0----------0----------2-----0---|
|-------0----------0----------0--------0------|
|---------------------------------------------|
|--0--0---0---0--0---0---0--0---0---2-----0---|
|---------------------------------------------|
|---------------------------------------------|
                               Your eyes they

|--4----------4----------4----------2---------|
|-------0----------0----------0----------0----|
|---------------------------------------------|
|--4--4---4---4--4---4---4--4---4---2--2---2--|
|---------------------------------------------|
|---------------------------------------------|
   tie...                       Me down so

|--0----------0----------0----------5---------|--4----------2----------|
|-------0----------0----------0----------0----|-------0----------0-----|
|---------------------------------------------|------------------------|
|--0--0---0---0--0---0---0--0---0---5--5---5--|--4--4---4---2--2---2---|
|---------------------------------------------|------------------------|
|---------------------------------------------|------------------------|
   hard...                     I'll never      learn to put up a guard

|--0----------0----------0----------2-----0---|
|-------0----------0----------0--------0------|
|---------------------------------------------|
|--0--0---0---0--0---0---0--0---0---2-----0---|
|---------------------------------------------|
|---------------------------------------------|
                               So keep my

|--4----------4----------4----------2---------|
|-------0----------0----------0----------0----|
|---------------------------------------------|
|--4--4---4---4--4---4---4--4---4---2--2---2--|
|---------------------------------------------|
|---------------------------------------------|
   love...                       My candle

|--0----------0----------0----------5---------|--4----------2----------|
|-------0----------0----------0----------0----|-------0----------0-----|
|---------------------------------------------|------------------------|
|--0--0---0---0--0---0---0--0---0---5--5---5--|--4--4---4---2--2---2---|
|---------------------------------------------|------------------------|
|---------------------------------------------|------------------------|
   bright...                        Learn me     hard, oh   learn me right

|--0----------0----------0--------------------|
|-------0----------0----------0-----2----2----|
|--------------------------------------1------|
|--0--0---0---0--0---0---0--0---0---0------0--|
|---------------------------------------------|
|---------------------------------------------|
                                    This ain't no

|--0----------0----------0--------------------|
|-------0----------0----------0-----2----2----|
|--------------------------------------1------|
|--0--0---0---0--0---0---0--0---0---0------0--|
|---------------------------------------------|
|---------------------------------------------|
   sham...                        I am what I

|--0----------0----------0----------2-----0---|--4----------4----------4---------4s2---------|
|-------0----------0----------0--------0------|-------0----------0----------0-----------0----|
|---------------------------------------------|-------------------------------------------0--|
|--0--0---0---0--0---0---0--0---0---2-----0---|--4--4---4---4--4---4---4--4---4--4s2--2---2--|
|---------------------------------------------|----------------------------------------------|
|---------------------------------------------|----------------------------------------------|
   am...

|--0----------0----------0----------5---------|--4----------2----------|
|-------0----------0----------0----------0----|-------0----------0-----|
|---------------------------------------------|------------------------|
|--0--0---0---0--0---0---0--0---0---5--5---5--|--4--4---4---2--2---2---|
|---------------------------------------------|------------------------|
|---------------------------------------------|------------------------|

===VERSE 2===

|--0----------0----------0----------2-----0---|
|-------0----------0----------0--------0------|
|---------------------------------------------|
|--0--0---0---0--0---0---0--0---0---2-----0---|
|---------------------------------------------|
|---------------------------------------------|
                             Though I may

|--4----------4----------4----------2---------|
|-------0----------0----------0----------0----|
|---------------------------------------------|
|--4--4---4---4--4---4---4--4---4---2--2---2--|
|---------------------------------------------|
|---------------------------------------------|
   speak...                    Some tongue of

|--0----------0----------0----------5---------|--4----------2----------|
|-------0----------0----------0----------0----|-------0----------0-----|
|---------------------------------------------|------------------------|
|--0--0---0---0--0---0---0--0---0---5--5---5--|--4--4---4---2--2---2---|
|---------------------------------------------|------------------------|
|---------------------------------------------|------------------------|
   old...                        Or even spit    out some   holy word

|--0----0-----0----0-----0----0-----2-----0---|
|-----0----------0----------0----------0------|
|---------------------------------------------|
|--0------0---0------0---0------0---2-----0---|
|---------------------------------------------|
|---------------------------------------------|
                                  I have no

|--4----4-----4----4-----4----4-----2----2----|
|-----0----------0----------0----------0------|
|---------------------------------------------|
|--4------0---4------4---4------4---2------2--|
|---------------------------------------------|
|---------------------------------------------|
   strength...                 With which to

|--0----------0----------0----------5---------|--4----------2----------|
|-------0----------0----------0----------0----|-------0----------0-----|
|---------------------------------------------|------------------------|
|--0--0---0---0--0---0---0--0---0---5--5---5--|--4--4---4---2--2---2---|
|---------------------------------------------|------------------------|
|---------------------------------------------|------------------------|
   speak...                WHen you sit me       down and   see I'm weak

  ==CHORUS==

|--0----0-----0----0-----0----0-----0---------|
|---------------------------------------------|
|---------------------------------------------|
|--0--0---0---0--0---0---0--0---0---0---------|
|---------------------------------------------|
|---------------------------------------------|
                                       We will

|---------------------------------------------|
|---------------------------------------------|
|--5----5-----5----5-----0----0-----0----0----|
|-----5----------5----------0----------0------|
|---------------------------------------------|
|--5------5---5------5---0------0---0------0--|
   run        and        scream...     You will

|---------------------------------------------|
|---------------------------------------------|
|--5----5-----5----5-----0----0-----0----0----|
|-----5----------5----------0----------0------|
|---------------------------------------------|
|--5------5---5------5---0------0---0------0--|
   dance      with       me...         We'll ful-

|---------------------------------------------|
|---------------------------------------------|
|--5----5-----5----5-----0----0-----0----0----|
|-----5----------5----------0----------0------|
|---------------------------------------------|
|--5------5---5------5---0------0---0------0--|
   fill       our        dreams, and we'll be free

|---------------------------------------------|
|---------------------------------------------|
|--7----7-----7----7-----7----7-----7-----7---|
|---------7----------7----------7------7------|
|---------------------------------------------|
|--7--7-------7--7-------7--7-------7---------|
                                       And we'll

|---------------------------------------------|
|---------------------------------------------|
|--5----5-----5----5-----0----0-----0----0----|
|-----5----------5----------0----------0------|
|---------------------------------------------|
|--5------5---5------5---0------0---0------0--|
   be         who     we are...         And they'll

|---------------------------------------------|
|---------------------------------------------|
|--5----5-----5----5-----0----0-----0----0----|
|-----5----------5----------0----------0------|
|---------------------------------------------|
|--5------5---5------5---0------0---0------0--|
   heal       our        scars...      Sadness

|---------------------------------------------|
|---------------------------------------------|
|--5----5-----5----5-----0----0-----0----0----|
|-----5----------5----------0----------0------|
|---------------------------------------------|
|--5------5---5------5---0------0---0------0--|
   will       be         far          away...


===VERSE 3===
(This part is just strummed chords, but I'm only giving you the changes.
 For most of the song the bottom string is muted, but it could also be
 played open for a deeper or fuller sound.)

|-----------------------------------2--0---|
|-----------------------------------0--0---|
|--7----7-----7----7-----7----------0--0---|
|---------7----------7--------------2--0---|
|-----------------------------------0--0---|
|--7--7-------7--7-------7----------x--x---|


|--2s4-------------2-----|--0-----------------5---|--4-------2------|--0-------------2---|
|----0-------------0-----|--0-----------------0---|--0-------0------|--0-------------0---|
|----0-------------0-----|--0-----------------0---|--0-------0------|--0-------------0---|
|--2s4-------------2-----|--0-----------------5---|--0-------0------|--0-------------2---|
|----0-------------0-----|--0-----------------0---|--4-------2------|--0-------------0---|
|----x-------------x-----|--x-----------------x---|--x-------x------|--x-------------x---|
                                                                                  So as we

|--4---------------2-----|--0----------------5----|--4-------2------|--0-------------2---|
|--0---------------0-----|--0----------------0----|--0-------0------|--0-------------0---|
|--0---------------0-----|--0----------------0----|--0-------0------|--0-------------0---|
|--4---------------2-----|--0----------------5----|--0-------0------|--0-------------2---|
|--0---------------0-----|--0----------------0----|--4-------2------|--0-------------0---|
|--x---------------x-----|--x----------------x----|--x-------x------|--x-------------x---|
   walked through fields of green, 'twas the fairest sun I'd ever seen           And I was

|--4---------------2-----|--0-----------------5---|--4-------2------|--0-------------0---|
|--0---------------0-----|--0-----------------0---|--0-------0------|--0-------------2---|
|--0---------------0-----|--0-----------------0---|--0-------0------|--0-------------1---|
|--4---------------2-----|--0-----------------5---|--0-------0------|--0-------------0---|
|--0---------------0-----|--0-----------------0---|--4-------2------|--0-------------2---|
|--x---------------x-----|--x-----------------x---|--x-------x------|--x-------------x---|
   broke...  I was on my    knees...    But you said yes as  I said    please... This ain't no

|--0---------------0-----|--0----------------0----|
|--0---------------2-----|--0----------------2----|
|--0---------------1-----|--0----------------1----|
|--0---------------0-----|--0----------------0----|
|--0---------------2-----|--0----------------2----|
|--x---------------x-----|--x----------------x----|
   sham...      I am what I am...          I leave no

|--0---------------0-----|--0---------------------|
|--0---------------2-----|--0---------------------|
|--0---------------1-----|--0---------------------|
|--0---------------0-----|--0---------------------|
|--0---------------2-----|--0---------------------|
|--x---------------x-----|--x---------------------|
   ties...   For a cynic's  mind...          We will

===CHORUS===

|--0-------------0---------------|--0-------------0---------------|
|--0-------------0---------------|--0-------------0---------------|
|--5-------------0---------------|--5-------------0---------------|
|--5-------------0---------------|--5-------------0---------------|
|--0-------------0---------------|--0-------------0---------------|
|--5-------------0---------------|--5-------------0---------------|
   run and       scream. You will   dance with    me...   We'll ful-

|--0-------------0---------------|--0-----------------------------|
|--0-------------0---------------|--0-----------------------------|
|--5-------------0---------------|--7-----------------------------|
|--5-------------0---------------|--7-----------------------------|
|--0-------------0---------------|--0-----------------------------|
|--5-------------0---------------|--7-----------------------------|
   dil our      dreams and we'll be free...               And we'll

|--0-------------0---------------|--0-------------0---------------|
|--0-------------0---------------|--0-------------0---------------|
|--5-------------0---------------|--5-------------0---------------|
|--5-------------0---------------|--5-------------0---------------|
|--0-------------0---------------|--0-------------0---------------|
|--5-------------0---------------|--5-------------0---------------|
   be who we     are,   and they'll heal our      scars...

|--0-------------0---------------|--0-----------------------------|
|--0-------------0---------------|--0-----------------------------|
|--5-------------0---------------|--7-----------------------------|
|--5-------------0---------------|--7-----------------------------|
|--0-------------0---------------|--0-----------------------------|
|--5-------------0---------------|--7-----------------------------|
  Sadness will be far away...                                Do not

===OUTRO===

|--0---------------------------|--0---------------------------|
|--0---------------------------|--0---------------------------|
|--8---------------------------|--0---------------------------|
|--9---------------------------|--0---------------------------|
|--9---------------------------|--0---------------------------|
|--x---------------------------|--x---------------------------|
   let my fickle flesh go to     waste...                 As it

|--0---------------------------|--0---------------------------|
|--0---------------------------|--0---------------------------|
|--8---------------------------|--0---------------------------|
|--9---------------------------|--0---------------------------|
|--9---------------------------|--0---------------------------|
|--x---------------------------|--x---------------------------|
   keeps my heart and soul in its place...           And I will

|--0---------------------0-----|--0--------------------2--0---|
|--0---------------------0-----|--0--------------------0--0---|
|--5---------------------7-----|--8--------------------0--0---|
|--5---------------------7-----|--9--------------------2--0---|
|--5---------------------7-----|--9--------------------0--0---|
|--x---------------------x-----|--x--------------------x--x---|
   love with urgency but not with haste...

|--2s4-------------2-----|--0-----------------5---|--4-------2------|--0-------------2---|
|----0-------------0-----|--0-----------------0---|--0-------0------|--0-------------0---|
|----0-------------0-----|--0-----------------0---|--0-------0------|--0-------------0---|
|--2s4-------------2-----|--0-----------------5---|--0-------0------|--0-------------2---|
|----0-------------0-----|--0-----------------0---|--4-------2------|--0-------------0---|
|----x-------------x-----|--x-----------------x---|--x-------x------|--x-------------x---|

|--4---------------2-----|--0-----------------5---|--4-------2------|--0-----------------|
|--0---------------0-----|--0-----------------0---|--0-------0------|--0-----------------|
|--0---------------0-----|--0-----------------0---|--0-------0------|--0-----------------|
|--4---------------2-----|--0-----------------5---|--0-------0------|--0-----------------|
|--0---------------0-----|--0-----------------0---|--4-------2------|--0-----------------|
|--x---------------x-----|--x-----------------x---|--x-------x------|--x-----------------|







===ALTERATIONS===

In my own performance of this song there a couple of big changes I make to what Marcus is
actually playing. Some of it is just a change in the picking patterns, others make small
changes to the chordal progression of the song.

While those don't exactly fit with the band, I like the changes and thought I would leave
it at the end of this tab for any interested.


When I play this I like to add a few embellishing chords to the chorus. Instead of just:
|--0--0--0--0--0--0--|--0------|
|--0--0--0--0--0--0--|--0------|
|--5--0--5--0--5--0--|--7------|
|--5--0--5--0--5--0--|--7------|
|--0--0--0--0--0--0--|--0------|
|--5--0--5--0--5--0--|--7------|

I like to add the Bm chord, and use different voicings:
|--0--0--0--0--0--0--|--0------|
|--0--0--0--0--0--2--|--7------|
|--5--0--5--0--5--0--|--7------|
|--5--0--5--9--5--0--|--0------|
|--0--0--0--9--0--2--|--0------|
|--5--0--5--0--5--x--|--x------|


I also like to modify the outro, again with some extra chords:

|--0---------------------------|--0---------------------------|
|--0---------------------------|--0---------------------------|
|--8---------------------------|--0---------------------------|
|--9---------------------------|--0---------------------------|
|--9---------------------------|--0---------------------------|
|--x---------------------------|--x---------------------------|
   let my fickle flesh go to     waste...                 As it

|--0------------------0--------|--0----------------------0-0--|
|--0------------------0--------|--0----------------------0-0--|
|--8------------------5--------|--0----------------------8-7--|
|--9------------------5--------|--0----------------------9-7--|
|--9------------------5--------|--0----------------------9-7--|
|--x------------------x--------|--x----------------------x-x--|
   keeps my heart and soul in its place...           And I will

|--0---------------------0-----|--0--------------------2--0---|
|--0---------------------0-----|--0--------------------0--0---|
|--5---------------------7-----|--8--------------------0--0---|
|--5---------------------7-----|--9--------------------2--0---|
|--5---------------------7-----|--9--------------------0--0---|
|--x---------------------x-----|--x--------------------x--x---|
   love with urgency but not with haste...
Tap to rate this tab
# A B C D E F G H I J K L M N O P Q R S T U V W X Y Z