Song name
# A B C D E F G H I J K L M N O P Q R S T U V W X Y Z

Mumford And Sons - Reminder tab

Capo:   1st Fret
Tuning: Standard

G:        320033
C:        x32033
G 6add9:  3x2233 Try and bend the notes on the second fret a little.
Em:       022033
G maj9:   200033

Form a G to play the intro.

Intro
e|--------------------------------------------------------------------------------------------------|
B|--------------------------------------------------------------------------------------------------|
G|-----0-0-0-0-----0-0-0-0-----0-0-0-0-----0-0-0-0-------0-0-0-0-----0-0-0-0--0--0-0-0-0-----0-0-0-0|
D|0h2--2-2-2-2--0--0-0-0-0-----0-0-0-0-----0-0-0-0-------0-0-0-0-----0-0-0-0-----0-0-0-0-----0-0-0-0|
A|--------------------------2-----------------------0h2---------------------------------------------|
E|--------------------------------------3-------------------------3-----------------------3---------|

e|--------------------------------------------------------------------------------------------------|
B|--------------------------------------------------------------------------------------------------|
G|-----0-0-0-0-----0-0-0-0-----0-0-0-0-----0-0-0-0-------0-0-0-0-----0-0-0-0-----0-0-0-0-----0-0-0-0|
D|0h2--2-2-2-2--0--0-0-0-0-----0-0-0-0-----0-0-0-0--0h2--2-2-2-2--0--0-0-0-0-----0-0-0-0-----0-0-0-0|
A|--------------------------2-------------------------------------------------2---------------------|
E|--------------------------------------3-------------------------------------------------3---------|

e|------------------------------------|
B|------------------------------------|
G|-0--0-0-0-0-----0-0-0-0-----0-0-0-0-|
D|----0-0-0-0--0--0-0-0-0-----0-0-0-0-|
A|-------------------------2----------|
E|------------------------------------|


Following First Chorus
e|--------------------------------------|
B|--------------------------------------|
G|------0-0-0-0-----0-0-0-0-----0-0-0-0-|
D|-0h2--0-0-0-0--0--0-0-0-0-----0-0-0-0-|
A|---------------------------2----------|
E|--------------------------------------|



G            C             G
Don't let me darken your door
               C         Em                        
Its not what I came here for 
                     G maj9      G  G6  G
No it's not what I came here for

G                    C            G
And I won't hear you cry when I'm gone
                    C         Em                         
I won't know if I'm doing you wrong 
                    G maj9          G  G6  G
I never know if I'm doing you wrong

G           C           G    
A constant reminder of where I can find her
                    C           Em
A light that might give up the way
            G maj9                       
Is all that I'm asking for
  G                 C
Without her I'm lost
G           G maj9     G  
Oh my love don't fade away

G                  C         G
So watch the world tear us apart
                   C           Em                  
A stoic mind and a bleeding heart
               G maj9          G  G6  G
You never see my bleeding heart


G                    C           G
And your lights always shining on
                        C       Em                                  
And I've been travelling oh so long
                     G maj9     G  G6  G 
I've been travelling oh so long


G           C           G    
A constant reminder of where I can find her
                    C         Em
A light that might give up the way
                 G maj9     
Is all that I'm asking for 
  G                 C
Without her I'm lost
G            G maj9    G 
Oh my love don't fade away

             G maj9    G 
Oh my love don't fade away
Tap to rate this tab
 
# A B C D E F G H I J K L M N O P Q R S T U V W X Y Z