Song name
# A B C D E F G H I J K L M N O P Q R S T U V W X Y Z

Mumford And Sons - Holland Road tab

Mumford & Sons
Babel
Holland Road

Open D Tuning

Here is a link to me playing the song
http://youtu.be/eKGxeI7kgQU


Intro/Versed
D |-----------------------------------------------------------------------|
A |-----------------------------------------------------------------------|
F#|--8-------8-------8-------5-------0-------0-------0-------5------------|
D |------0-------0-------0-------0-------0-------0-------0-------0--------|
A |-----------------------------------------------------------------------|
D |--9-9---9-9-9---9-9-9---9-5-5---5-0-0---0-0-0---0-0-0---0-5-5---5------|

|-----------------------------------------------------------------------|
|-----------------------------------------------------------------------|
|--0-------0-------7-------7--------------------------------------------|
|------0-------0-------0-------0----------------------------------------| 4x
|-----------------------------------------------------------------------|
|--0-0---0-0-0---0-7-7---7-7-7---7--------------------------------------|


"You cut me down..."
|-----------------------------------------------------------------------|
|-----------------------------------------------------------------------|
|--5---------------0----------------8---------------8------7------------|
|-----------------------------------------------------------------------| 2x
|-----------------------------------------------------------------------|
|--5---------------0----------------9---------------9------7------------|


Verse 2
|---0--------0----0--------0----0------0--------------------------------|
|---0--------0----0--------0----0------0--------------------------------|
|---8--------5----0--------5----0------7--------------------------------|
|---0--------0----0--------0----0------0--------------------------------| 3x
|---0--------0----0--------0----0------0--------------------------------|
|---9--------5----0--------5----0------7--------------------------------|


"You cut me down..."
|--0---------------0----------------0---------------0------0------------|
|--0---------------0----------------0---------------0------0------------|
|--5---------------0----------------8---------------8------7------------|
|--0---------------0----------------0---------------0------0------------|
|--0---------------0----------------0---------------0------0------------|
|--5---------------0----------------9---------------9------7------------|

|--0------0--------0----------------0---------------0------0------------|
|--0------0--------0----------------0---------------0------0------------|
|--5------5--------0----------------8---------------8------7------------|
|--0------0--------0----------------0---------------0------0------------|
|--0------0--------0----------------0---------------0------0------------|
|--5------5--------0----------------9---------------9------7------------|


Verse 3
|---0--------0----0--------0----0------0--------------------------------|
|---0--------0----0--------0----0------0--------------------------------|
|---8--------5----0--------5----0------7--------------------------------|
|---0--------0----0--------0----0------0--------------------------------| 4x
|---0--------0----0--------0----0------0--------------------------------|
|---9--------5----0--------5----0------7--------------------------------|


"You cut me down..."
|--0---------------0----------------0---------------0------0------------|
|--0---------------0----------------0---------------0------0------------|
|--5---------------0----------------8---------------8------7------------| 
|--0---------------0----------------0---------------0------0------------| 2x
|--0---------------0----------------0---------------0------0------------|
|--5---------------0----------------9---------------9------7------------|


"But I still believe..."
|--0----0--------0----0--------0----0----0----0-------------------------|
|--0----0--------0----0--------0----0----0----0-------------------------|
|--5----0--------5----0--------5----0----7----8-------------------------|
|--0----0--------0----0--------0----0----0----0-------------------------|
|--0----0--------0----0--------0----0----0----0-------------------------|
|--5----0--------5----0--------5----0----7----9-------------------------|


Play the Verse 4x

"But I still believe..." 2x

End on Verse 6x
Tap to rate this tab
# A B C D E F G H I J K L M N O P Q R S T U V W X Y Z