Song name
# A B C D E F G H I J K L M N O P Q R S T U V W X Y Z

Mumford And Sons - Not With Haste tab

Capo 1
Tuning: DADF#AD
http://www.youtube.com/watch?v=Y8E9kso12GU&feature=relmfu
Please feel free to correct/comment

           CHORDS USED
D |--2--0--4--5--7------------------------------|
A |--0--0--0--0--0------------------------------|
F#|--1--0--3--5--7------------------------------|
D |--0--0--0--0--0------------------------------|
A |---------------------------------------------|
D |---------------------------------------------|
           
D |--2---0--2-s-4------4--------4---------4-s-2-------2-p-0-------|
A |---------------0--------0---------0------------0---------------|
F#|----1------------3----3---3-----3---3--------1---1-------------|
D |--0------0----------0--------0---------0-----------0-----------|
A |---------------------------------------------------------------|
D |---------------------------------------------------------------|
           
D |-------0---------0---------5-------4-------2--------0--------|
A |---0--------0---------0--------0-------0-------0--------0----|
F#|-0---0----0---0-----0---0----5---5---3---3---1---1----0---0--|
D |-------0---------0---------0-------0-------0-----------------|
A |-------------------------------------------------------------|
D |----------------------------------------------------0--------|
             
Play this until "This ain't no sham" then play

D |------------------------------------------------------|
A |--0--------0-------0----------------------------------|
F#|------0--------0-------0------------------------------|
D |----0---0----0---0---0---0----------------------------|
A |--0--------0-------0----------------------------------|
D |------------------------------------------------------|
             
D |--2---0--2-s-4------4--------4---------4-s-2-------2-p-0-------|
A |---------------0--------0---------0------------0---------------|
F#|----1------------3----3---3-----3---3--------1---1-------------|
D |--0------0----------0--------0---------0-----------0-----------|
A |---------------------------------------------------------------|
D |---------------------------------------------------------------|
           
D |-------0---------0---------5-------4-------2--------0--------|
A |---0--------0---------0--------0-------0-------0--------0----|
F#|-0---0----0---0-----0---0----5---5---3---3---1---1----0---0--|
D |-------0---------0---------0-------0-------0-----------------|
A |-------------------------------------------------------------|
D |----------------------------------------------------0--------|
                      play ^ until chorus
       Chorus
D |--5--7--4----------------2--------------------------------|
A |--0--0--0----------------0--------------------------------|
F#|--5--7--3--3 times then--1--------------------------------|
D |--0--0--0----------------0--------------------------------|
A |--0--0--0----------------0--------------------------------|
D |--0--0--0----------------0--------------------------------|
           strumming
D |--2--0--2-s-4----4-s-2-p-0----5--4--2--0------------------|
A |--0--0--0---0----0---0---0----0--0--0--0------------------|
F#|--1--0--1-s-3----3-s-1-p-0----5--3--1--0------------------|
D |--0--0--0---0----0---0---0----0--0--0--0------------------|
A |--0--0--0---0----0---0---0----0--0--0--0------------------|
D |--0--0--0---0----0---0---0----0--0--0--0------------------|
  Play ^ until "this ain't no sham" then just play strum OPEN

Chorus
D |--5--7--4-----------------2--------------------------------|
A |--0--0--0-----------------0--------------------------------|
F#|--5--7--3--[3 times then]-1--------------------------------|
D |--0--0--0-----------------0--------------------------------|
A |--0--0--0-----------------0--------------------------------|
D |--0--0--0-----------------0--------------------------------|

       "Do not let my fickle flesh go to waste"
              strum open again then

D |--2--0--2-s-4----4-s-2-p-0----5--4--2--0------------------|
A |--0--0--0---0----0---0---0----0--0--0--0------------------|
F#|--1--0--1-s-3----3-s-1-p-0----5--3--1--0------------------|
D |--0--0--0---0----0---0---0----0--0--0--0------------------|
A |--0--0--0---0----0---0---0----0--0--0--0------------------|
D |--0--0--0---0----0---0---0----0--0--0--0------------------|




Tap to rate this tab
# A B C D E F G H I J K L M N O P Q R S T U V W X Y Z