Song name
# A B C D E F G H I J K L M N O P Q R S T U V W X Y Z

Mumford And Sons - Lovers Eyes tab

Open D Tuning

Here is a link to a video of me playing the song
http://www.youtube.com/watch?v=NkadPP6yeqw&feature=plcp


Intro
D |-----------------------------------------------------------------------|
A |-----------------------------------------------------------------------|
F#|-----------------------------------------------------------------------|
D |-------0-------0-------2---0---2/4-------4-------4-------4/5---4---4/6-|
A |---0-------0-------0-----------------0-------0-------0-----------------|
D |-0---0---0---0---0---0---0---0-----0---0---0---0---0---0-----0---0-----|

|-----------------------------------------------------------------------|
|-----------------------------------------------------------------------|
|-----------------------------------------------------------------------|
|-------6-------6-------5---4---2------2-------2/4-------4\2-------2p0--| 2x
|---0-------0-------0---------------0------0---------0---------0--------|
|-0---0---0---0---0---0---0---0---0---0--0---0-----0---0-----0---0------|


Verse
|-----------------------------------------------------------------------|
|-----------------------------------------------------------------------|
|-----------------------------------------------------------------------|
|-------0-------0-------2---0---2/4-------4-------4-------4/5---4---4/6-|
|---0-------0-------0-----------------0-------0-------0-----------------|
|-0---0---0---0---0---0---0---0-----0---0---0---0---0---0-----0---0-----|

|-----------------------------------------------------------------------|
|-----------------------------------------------------------------------|
|-----------------------------------------------------------------------|
|-------6-------6-------5---4---2-------2-------2-------2------ 2p0-----| 2x
|---0-------0-------0---------------0-------0-------0-------0-----------|
|-0---0---0---0---0---0---0---0---0---0---0---0---0---0---0---0---------|


Intro 1x


Verse 2x


1st Chorus
|-----------------------------------------------------------------------|
|-----------------------------------------------------------------------|
|-----------------------------------------------------------------------|
|---0---0---0---0---0---0---0---0---0---0---0---0---0---0---0---0-------| 2x
|-----------------------------------------------------------------------|
|-5---5---5---5---0---0---0---0---7---7---7---7---0---0---0---0---------|

|-----------------------------------------------------------------------|
|-----------------------------------------------------------------------|
|-----------------------------------------------------------------------|
|---0---0---0---0---0---0---0---0---0---0---0---0---0---0---0---0-------|
|-----------------------------------------------------------------------|
|-9---9---9---9---0---0---0---0---7---7---7---7---0---0---0---0---------|

|----------------------------------------------------0--0-----0--0------|
|----------------------------------------------------0--0-----0--0------|
|----------------------------------------------------0--1-----0--1------|
|---0---0---0---0---0---0---0---0---0---0---0---0----0--0-----0--0------| 
|----------------------------------------------------0--2-----0--2------|
|-5---5---5---5---0---0---0---0---7---7---7---7---0--0--0--0--0--0------|

|----0--0-----0---------------------------------------------------------|
|----0--0-----0---------------------------------------------------------|
|----0--1-----0---------------------------------------------------------|
|----0--0-----0---------------------------------------------------------|
|----0--2-----0---------------------------------------------------------|
|-0--0--0--0--0---------------------------------------------------------|


Verse (strum the notes you played in the 1st and 2nd verse)


Verse
|--0--0--0---0--0--0--0---0--0--0--0--0--0---0---0---0------------------|
|--0--0--0---0--0--0--0---0--0--0--0--0--0---0---0---0------------------|
|--0--0--0---0--0--0--0---0--0--0--0--0--0---0---0---0------------------|
|--2--0--2/4-4--5--4--4/6-6--5--4--2--2--2/4-4\2-2p0-0------------------|
|--0--0--0---0--0--0--0---0--0--0--0--0--0---0---0---0------------------|
|--0--0--0---0--0--0--0---0--0--0--0--0--0---0---0---0------------------|


Chorus
|--0---------------0---------------0---------------0--------------------|
|--0---------------0---------------0---------------0--------------------|
|--5---------------0---------------7---------------0--------------------|
|--0---------------0---------------0---------------0--------------------| 2x
|--0---------------0---------------0---------------0--------------------|
|--5---------------0---------------7---------------0--------------------|

|--0---------------0---------------0---------------0--------------------|
|--0---------------0---------------0---------------0--------------------|
|--8---------------0---------------7---------------0--------------------|
|--0---------------0---------------0---------------0--------------------|
|--0---------------0---------------0---------------0--------------------|
|--9---------------0---------------7---------------0--------------------|

|--0---------------0---------------0---------------0--0-----0--0--------|
|--0---------------0---------------0---------------0--0-----0--0--------|
|--5---------------0---------------7---------------0--1-----0--1--------|
|--0---------------0---------------0---------------0--0-----0--0--------|
|--0---------------0---------------0---------------0--2-----0--2--------|
|--5---------------0---------------7-------------0-0--0--0--0--0--------|

|----0--0-----0---------------------------------------------------------|
|----0--0-----0---------------------------------------------------------|
|----0--1-----0---------------------------------------------------------|
|----0--0-----0---------------------------------------------------------|
|----0--2-----0---------------------------------------------------------|
|-0--0--0--0--0---------------------------------------------------------|



"I walk slow..."
|----0----0----0----0----0----0-----------------------------------------|
|----0----0----0----0----0----0-----------------------------------------|
|----0----7----0----8----5----0-----------------------------------------|
|----0----0----0----0----0----0-----------------------------------------| 7x
|----0----0----0----0----0----0-----------------------------------------|
|----0----7----0----9----5----0-----------------------------------------|

"Ahh Ahh Ahh"
|--0--0--0---0--0--0--0---0--0--0--0--0--0---0---0---0------------------|
|--0--0--0---0--0--0--0---0--0--0--0--0--0---0---0---0------------------|
|--0--0--0---0--0--0--0---0--0--0--0--0--0---0---0---0------------------|
|--2--0--2/4-4--5--4--4/6-6--5--4--2--2--2/4-4\2-2p0-0------------------| 3x
|--0--0--0---0--0--0--0---0--0--0--0--0--0---0---0---0------------------|
|--0--0--0---0--0--0--0---0--0--0--0--0--0---0---0---0------------------|
Tap to rate this tab
# A B C D E F G H I J K L M N O P Q R S T U V W X Y Z