Song name
# A B C D E F G H I J K L M N O P Q R S T U V W X Y Z

Mumford And Sons - I Will Wait chords

Highlighted       Show chord diagrams
Mumford and Sons  I Will Wait

tabbed by Jasper121

Tuning: C A C G C E
live: no capo
album recording: capo 1


Intro/Bridge (open strumming)
E|-0--0--0---0-----0---0---------------------|
C|-0--0--0---0-----0---0---------------------|
G|-2--0--0---0-----0---0---------------------|
C|-0--0--0---5-----4/--7---------------------| x2
A|-0--2--3---0-----0---0---------------------|
C|----0--0---5-----4/--7---------------------|


Verse (same muted strumming pattern as in little lion man)
    C       F      C       G
E|--0--------------0---------------------|
C|--0--------------0---------------------|
G|--0--------------0---------------------|
C|--0-------5------0-------7-------------|
A|--3-------x------3-------x-------------|
C|----------5--------------7-------------|

C
I came home
         F
Like a stone
             C             G
And I fell heavy into your arms

These days of dust
Which we've known
Will blow away with this new sun
   

Pre-Chorus
   A  B  C   F     E   G
E|-0--0--0---0-----0---0---------------------|
C|-0--0--0---0-----0---0---------------------|
G|-2--0--0---0-----0---0---------------------|
C|-0--0--0---5-----4/--7---------------------| x2
A|-0--2--3---0-----0---0---------------------|
C|----0--0---5-----4/--7---------------------|

      A    B    C
And I'll kneel down
      F     E    G
Wait for now

And I'll kneel down
Know my ground
    

Chorus
     C        E       G 
E|---0--------0-------0-------------------|
C|---0--------0-------0-------------------|
G|---0--------0-------0-------------------|
C|---0--------4-------7-------------------|
A|---3--------0-------0-------------------|
C|---0--------4-------7-------------------|

 C                             E   G
I will wait, I will wait for you!
And I will wait, I will wait for you!


Verse II

So break my step
And relent
You forgave and I won't forget

Know what we've seen
And him with less
Now in some way, shake the excess

Chorus

I will wait, I will wait for you!
And I will wait, I will wait for you!
I will wait, I will wait for you!
And I will wait, I will wait for you!

Verse III

Now I'll be bold
As well as strong
Use my head alongside my heart
       
So take my flesh
And fix my eyes
That tethered mind free from the lies

Pre-Chorus

      A    B    C
And I'll kneel down
      F     E    G
Wait for now

And I'll kneel down
Know my ground


Bridge
   C  B    A   F     E   G 
E|-0--0----0---0-----0---0---------------------|
C|-0--0----0---0-----0---0---------------------|
G|-0--0----0---0-----0---0---------------------|
C|-0--11---9---5-----4/--7---------------------| x4
A|-3--0----0---0-----0---0---------------------|
C|-0--11---9---5-----4/--7---------------------|

  C   B    A  
Raise my hands
 F       E    G
Paint my spirit gold
     C    B  A
And bow my head
 F     E     G
Keep my heart slow

Chorus

I will wait, I will wait for you!
And I will wait, I will wait for you!
I will wait, I will wait for you!
And I will wait, I will wait for you!
Tap to rate this tab
# A B C D E F G H I J K L M N O P Q R S T U V W X Y Z