Song name
# A B C D E F G H I J K L M N O P Q R S T U V W X Y Z

Mumford And Sons - Timshel tab

Based off already posted tabs, 
just a basic structure and definitely not 100% perfect

tuning; down a whole step.
e-B-G-D-A-D (standard)
d-A-F-C-G-D (down whole step)



INTRO:

   G
d|-------------------------------------------------||
A|-------------------------------------------------||
F|----0---0---0---0-------0-------0----------0-----||
C|--------------------0-------0-------0h2~------0--||
G|-------------------------------------------------||
D|--3---3---3---3---3---3---3---3---3------3---3---||



VERSES:
    G
d|-------------------------------------------------|
A|-------------------------------------------------|
F|----0-------0-------0-------0-------0-------0----|    listen when to 
C|--------0-------0-------0-------0-------0-------0| ---pick this every
G|-------------------------------------------------|    now and then, not
D|--3---3---3---3---3---3---3---3---3---3---3---3--|    every time!
...cold is the water..           ..it freezes your..



    C
d|-------------------------------------------------|
A|-------------------------------------------------|
F|----0---0---0---0---0---0---0---0---0---0---0---0|
C|-------------------------------------------------|
G|--3---3---3---3---3---3---3---3---3---3---3---3--|
D|-------------------------------------------------|
..already cold mind.          ..already cold, cold..



    G
d|-------------------------------------------------||
A|----------------0h2--2p0-------------------------||
F|----0-------0------0----0------0------0--------0-||    
C|--------0------------------0-------0-------0-----|| 
G|-------------------------------------------------||    
D|--3---3---3---3-----3----3---3---3---3---3---3---||    
...cold mind..




CHORUS:

   D                C               G
d|-------------------------------------------------|
A|-------2----------------1------------------------|
F|---3-------3---0----0-------0---0-----0-----0----|
C|-----0-------0--------2-------2----0-----0-----0-|
G|-0-------0--------3-------3----------------------|
D|----------------------------------3--3--3--3--3--|
..But you are not  alone in this..


   C                Em               G
d|-------------------------------------------------|
A|-------1----------------0------------------------|
F|---0-------0---0----0-------0---0-----0-----0----|
C|-----2-------2--------2-------2----0-----0-----0-|
G|-3-------3---------------------------------------|
D|-------------------0------0------3--3--3--3--3---|
..But you are not  alone in this..



   C                Dsus4               G       Em
d|-----------------------------------------------0~|
A|-------1----------------3----------------------0~|
F|---0-------0---0----0-------0---0-----0-----0--0~|
C|-----2-------2--------4-------4----0-----0-----2~|
G|-3-------3---------5------5--------------------2~|
D|-------------------------------3--3--3--3--3---0~|
..as brothers we will stand and we'll hold your hand..


  Em         G 
d|-------------------------------------------------||
A|---------------------------------0h1---1p0-------||
F|--0------0-------0-------0----------0-----0------||
C|-----0-------0-------0-------0----------------0--||
G|-------------------------------------------------||
D|-0--0--0---3---3---3---3---3---3-----3------3---3||
..hold your hand..



When playing the chorus for the second time; play A as an open
string instead of playing the C string open the first time,
it's a bit fiddly but if you listen you can hear it.


When it comes to end of the chorus before the bridge,
keep repeating the G picking pattern and make the transition
into strumming (listen to song for correct timing)

BRIDGE:
    C Dsus4 Em   C    G
d|----------------------|
A|--1--3----0----1----0-|
F|--0--0----0----0----0-|
C|--2--4----5----2----0-|
G|--3--5----7----3----2-|
D|--3--5----7----3----3-|

    C Dsu4  Em   C    G
And I will tell the night

C    Dsus4   Em   C    G
Whis-per:   "Lose your sight"

    C Dsus4  Em   C   G     C~         G (single strum) 
But I can't  move the moun-tains for you
                      ^     ^
                  NOTE: single strum
                     this G & C

end on:
d|-3~---|
A|-3~---|
F|-0~---|
C|-0~---|
G|-2~---|
D|-3~---|
Tap to rate this tab
# A B C D E F G H I J K L M N O P Q R S T U V W X Y Z