Song name
# A B C D E F G H I J K L M N O P Q R S T U V W X Y Z

Mumford And Sons - The Boxer tab

Hi i'm Marc, and this is my first tab. I wanted to play the solo for school, and it
took me 3 days to getis close to what it is on a normal guitar. I hope you like it! :D


(/) Slide Up  (\) Slide Down  (h) Hammer On  (p) Pull Off  (b) Bend (r) Release (v) Vibrato


E|------------------------------------------------------------------------------------------|
B|------------------------------------------------------------------------------------------|
G|------------------------------------------------------------------------------------------|
D|-----------------1p0-----------0--5--5--4--2--2--4--2p0--0-0-2-0--------------------------|
A|--2--3--5--5--5-------3--2--3-----------------------------------0-0-2--3--3--3--3--3--2---|
E|------------------------------------------------------------------------------------------|



E|--------------------------------8--7--8--8--10--8--7--7--8--7--5--3----5--3--------------------|
B|----------------------------------------------------------------------6-----6--5--3--1--0--1---|
G|-----------------------------------------------------------------------------------------------|
D|-----------------------------5-----------------------------------------------------------------|
A|--0--2--3--2--0--2--3--2--5--------------------------------------------------------------------|
E|-----------------------------------------------------------------------------------------------|


E|--------------|
B|--------------|
G|--------------|
D|--3--2--0-----|
A|-----------3--|
E|--------------|
Tap to rate this tab
# A B C D E F G H I J K L M N O P Q R S T U V W X Y Z