Song name
# A B C D E F G H I J K L M N O P Q R S T U V W X Y Z

Mumford And Sons - Reminder chords

Highlighted       Show chord diagrams
-------------------------------------------------------------------------------
                             Reminder - Mumford and Sons
-------------------------------------------------------------------------------
Tabbed by: Dirk Vissers
E-mail: dirkvissers@hotmail.com

Tuning:EADGBe
Capo: 2


G=320033
C=x32013
Em=022000
G/F#=2x0030

e|-------------------------------------------|
B|-----0-0-0-------0-0-0-----0-0-0-----0-0-0-|
G|-----0-0-0-------0-0-0-----0-0-0-----0-0-0-|   2X
D|-----0-0-0--0h2--2-2-2--0--0-0-0-----0-0-0-|
A|----------------------------------2--------|
E|--3----------------------------------------|

e|-------------------------------------------|
B|-----0-0-0------0-0-0------0-0-0-----0-0-0-|
G|-----0-0-0--0---0-0-0------0-0-0-----0-0-0-|   
D|-----0-0-0------0-0-0--0---0-0-0-----0-0-0-|
A|----------------------------------2--------|
E|--3----------------------------------------|



G            C            G
Don't let me dark in your door
G              C         Em       Em                 G/F#        G  C  G
Its not what I came here for, no it's not what I came here for
G                    C            G
And I won't hear you cry when I'm gone
G                   C         Em       Em                  G/F#            G  C  G
I won't know if I'm doing you wrong, I never know if I'm doing you wrong

G          C           G    
A constant reminder of where I can find her
G              C         Em
A light that I give up away
Em          G/F#         G                 C
Its all that I'm asking for, without her I'm lost
G            G/F#      G  
My love don't fade away


e|-------------------------------------------|
B|-----0-0-0-------0-0-0-----0-0-0-----0-0-0-|
G|-----0-0-0-------0-0-0-----0-0-0-----0-0-0-|   
D|-----0-0-0--0h2--2-2-2--0--0-0-0-----0-0-0-|
A|----------------------------------2--------|
E|--3----------------------------------------|


G               C         G
Watch the world tear us apart
G                  C           Em                  G/F#             G  C  G
A stoic mind and a bleeding heart, you never see my bleeding heart
G                    C            G
And your lights always shinning on
G                       C       Em                           G/F#      G  C  G           
But iv'e been traveling oh so long, well iv'e been traveling oh so long


G          C           G    
A constant reminder of where I can find her
G              C         Em
A light that I give up away
Em          G/F#         G                 C
Its all that I'm asking for, without her i'm lost
G            G/F#      G 
My love don't fade away
G            G/F#      G 
My love don't fade away


************************************

| /   slide up
| \   slide down
| H   hammer-on
| p   pull-off
| ~   vibrato
| +   harmonic
| x   Mute note
| B   Bend
| pb  Pre-bend
| br  Bend release
| pbr Pre-bend release
| brb Bend release bend

************************************
Tap to rate this tab
# A B C D E F G H I J K L M N O P Q R S T U V W X Y Z