Song name
# A B C D E F G H I J K L M N O P Q R S T U V W X Y Z

Mumford And Sons - The Boxer tab

Hi I'm Max. This is my first ever tab. I can't find a good solo for this

song; so I decided I would put up my own. Enjoy!



e|---------------------------------------------------------------------------|
B|---------------------------------------------------------------------------|
G|------------------------------------------5-5--4---------------------------|
D|--------5--5--5--5--5h7p5-----------5--5-----------7--7--7/9--7------------|
A|-7--8----------------------7--7--8-----------------------------------------|
E|---------------------------------------------------------------------------|

e|---------------------------------------------------------------------------|
B|---------------------------------------------------------------------------|
G|------------------------0--------------------------------------------------|
D|-5--5--7-5-----------------------------------------------------------------|
A|-----------7-5--5--7--8--8-8--8--8--7--5--7--8--7---5-7--8--7--------------|
E|---------------------------------------------------------------------------|

e|---------------8--7-8--8--8/10--8--7--7--7h8p7--7--5--5--5-5-5h7p5--5------|
B|-----------5-7-------------------------------------------------------------|
G|-------5-7-----------------------------------------------------------------|
D|-3/5-7---------------------------------------------------------------------|
A|---------------------------------------------------------------------------|
E|---------------------------------------------------------------------------|

e|--3--3p1p0--3-3--3---------0--1--1-1p0-------------------------------------|
B|-------------------3-3--3---------------3-1--------------------------------|
G|---------------------------------------------------------------------------|
D|---------------------------------------------------------------------------|
A|---------------------------------------------------------------------------|
E|---------------------------------------------------------------------------|


************************************

| /   slide up
| \   slide down
| h   hammer-on
| p   pull-off
| ~   vibrato
| +   harmonic
| x   Mute note
| b   Bend
| pb  Pre-bend
| br  Bend release
| pbr Pre-bend release
| brb Bend release bend

************************************
Tap to rate this tab
 
# A B C D E F G H I J K L M N O P Q R S T U V W X Y Z