Song name
# A B C D E F G H I J K L M N O P Q R S T U V W X Y Z

Mumford And Sons - Little Lion Man tab

MUMFORD & SONS - LITTLE LION MAN
Tuning (low to high): CACGCE

E--> stays as      E
B--> goes up to    C
G--> stays as      G
D--> goes down to  C
A--> stays as      A
E--> goes down to  C

Capo: 5th fret

Intro (x4):

    d d u d  d d u d  d d u d  d d u d  d d u d u d d d d  d d u d  d d u d
E|--0-0-0-0--0-0-0-0--0-0-0-0--0-0-0-0--0-0-0-0-0-0-0-0-0--0-0-0-0--0-0-0-0-|
C|--0-0-0-0--0-0-0-0--0-0-0-0--0-0-0-0--0-0-0-0-0-0-0-0-0--0-0-0-0--0-0-0-0-|
G|--2-2-2-2--2-2-2-2--2-2-2-2--2-2-2-2--0-0-0-0-0-2-0-0-0--0-0-0-0--0-0-0-0-|
C|--0-0-0-0--0-0-0-0--0-0-0-0--0-0-0-0--0-0-0-0-0-0-0-2-0--0-0-0-0--0-0-0-0-|
A|--0-0-0-0--0-0-0-0--0-0-0-0--0-0-0-0--3-3-3-3-3-3-3-3-3--3-3-3-3--3-3-3-3-|
C|--x-x-x-x--x-x-x-x--x-x-x-x--x-x-x-x--0-0-0-0-0-0-0-0-0--0-0-0-0--0-0-0-0-|

Verse (x2):

    d d u d  d d u d  d d u d  d d u d  d d u d  d d u d  d d u d  d d u d
E|--0-0-0-0--0-0-0-0--0-0-0-0--0-0-0-0--0-0-0-0--0-0-0-0--0-0-0-0--0-0-0-0-|
C|--0-0-0-0--0-0-0-0--0-0-0-0--0-0-0-0--0-0-0-0--0-0-0-0--0-0-0-0--0-0-0-0-|
G|--2-2-2-2--2-2-2-2--2-2-2-2--2-2-2-2--0-0-0-0--0-0-0-0--0-0-0-0--0-0-0-0-|
C|--0-0-0-0--0-0-0-0--0-0-0-0--0-0-0-0--0-0-0-0--0-0-0-0--0-0-0-0--0-0-0-0-|
A|--0-0-0-0--0-0-0-0--0-0-0-0--0-0-0-0--3-3-3-3--3-3-3-3--3-3-3-3--3-3-3-3-|
C|--x-x-x-x--x-x-x-x--x-x-x-x--x-x-x-x--0-0-0-0--0-0-0-0--0-0-0-0--0-0-0-0-|

Pre-Chorus (x2):

    d d u d  d d u d  d d u d  d  d  d d u d  d d u d  d d u d  d d u d
E|--0-0-0-0--0-0-0-0--0-0-0-0--0--0--0-0-0-0--0-0-0-0--0-0-0-0--0-0-0-0-|
C|--0-0-0-0--0-0-0-0--0-0-0-0--0--0--0-0-0-0--0-0-0-0--0-0-0-0--0-0-0-0-|
G|--4-4-4-4--4-4-4-4--2-2-2-2--0--0--0-0-0-0--0-0-0-0--0-0-0-0--0-0-0-0-|
C|--2-2-2-2--2-2-2-2--0-0-0-0--0--0--0-0-0-0--0-0-0-0--0-0-0-0--0-0-0-0-|
A|--3-3-3-3--3-3-3-3--0-0-0-0--x--x--3-3-3-3--3-3-3-3--3-3-3-3--3-3-3-3-|
C|--x-x-x-x--x-x-x-x--x-x-x-x--4--2--0-0-0-0--0-0-0-0--0-0-0-0--0-0-0-0-|

Chorus:

"But it was not your fault but mine / And it was your heart on the line"
E|-----------0---------0--------0-----------------0---------0-------0----|
C|-----------0---------0--------0-----------------0---------0-------0----|
G|-----------2---------0--------0-----------------2---------0-------0----|
C|-----------0---------0--------0-----------------0---------0-------0----|
A|-----------0---------8--------3-----------------0---------8-------3----|
C|-----------x---------5--------0-----------------x---------5-------0----|

"I really fucked it up this time / Didn't I my dear?
E|---------0---------0-------0------------------0--0--0--0--0--0--0--0--0--|
C|---------0---------0-------0------------------0--0--0--0--0--0--0--0--0--|
G|---------2---------0-------0------------------0--0--0--0--0--0--0--0--0--|
C|---------0---------0-------0------------------0--0--0--0--0--0--0--0--0--|
A|---------0---------8-------3------------------10-10-10-10-10-10-10-10-10-|
C|---------x---------5-------0------------------7--7--7--7--7--7--7--7--7--|

Before the second verse, play the intro riff twice, with a hard strumming.

Verse 2 and Pre-Chorus 2 are the same, Chorus 2 is played like the first, you have only 
to strum the chords instead of play them once.

Before the bridge, play softly the same chords of the verse riff, twice.

Bridge (x8):

E|---0--0--0--0---0--0--0--0---0--0--0--0---0--0--0--0---|
C|---0--0--0--0---0--0--0--0---0--0--0--0---0--0--0--0---|
G|---4--4--4--4---0--0--0--0---0--0--0--0---0--0--0--0---|
C|---2--2--2--2---4--4--4--4---9--9--9--9---9--9--9--9---|
A|---3--3--3--3---3--3--3--3---8--8--8--8---8--8--8--8---|
C|---x--x--x--x---0--0--0--0---0--0--0--0---0--0--0--0---|

Last Chorus(x2, the second time without instruments):
                                *Strum hard*
 "...not your fault but mine"    "And it was your heart on the line
E|----0------------------0-0-0-0--0-0-0-0----0-0-0-0----0-0-0-0-0-0-0-0--|
C|----0------------------0-0-0-0--0-0-0-0----0-0-0-0----0-0-0-0-0-0-0-0--|
G|----2------------------0-0-0-0--0-0-0-0----2-2-2-2----0-0-0-0-0-0-0-0--|
C|----0------------------0-0-0-0--0-0-0-0----0-0-0-0----0-0-0-0-0-0-0-0--|
A|----0------------------3-3-3-3--3-3-3-3----0-0-0-0----8-8-8-8-3-3-3-3--|
C|----x------------------0-0-0-0--0-0-0-0----x-x-x-x----5-5-5-5-0-0-0-0--|

And continue like this, like the Chorus 2.

The end, after the last chorus, is played with the C chord:

"Didn't I my...... dear?"
E|------------------0-----|
C|------------------0-----|
G|------------------0-----|
C|------------------0-----|
A|------------------3-----|
C|------------------0-----|
Tap to rate this tab
# A B C D E F G H I J K L M N O P Q R S T U V W X Y Z