Song name
# A B C D E F G H I J K L M N O P Q R S T U V W X Y Z

Mumford And Sons - I Gave You All tab

Tabbed By: yulizavala22
Mumford and Sons
I Gave You All

I tried to find the banjo part for guitar on this song
on Ultimate-Guitar but nothing was there, so I
decided to post this. Enjoy!

Tuning:Open G: DGDGBD

The Verse Chords are strummed at (:54)
D|--3----3--4----5----3----3--4----5--|
B|--3----3--3----3----3----3--3----3--|
G|--3----2--2----3----3----2--2----3--|
D|------------------------------------|
G|------------------------------------|
D|------------------------------------|

And the Verse Picking is played at (2:23)
D|----------3--------------------3-----------|
B|--3------------3-------3-------------3-----|
G|-------3----------3---------3-----------3--|
D|-------------------------------------------|
G|-------------------------------------------|
D|-------------------------------------------|

D|----------3--------------------4-----------|
B|--3------------3---------------------3-----|
G|-------2----------2---------2-----------2--|
D|-------------------------------------------|
G|-------------------------------------------|
D|-------------------------------------------|

D|----------5--------------------5-----------|
B|--3------------3--------3------------3-----|
G|-------3----------3---------3-----------3--|
D|-------------------------------------------|
G|-------------------------------------------|
D|-------------------------------------------|

D|----------5--------------------5-----------|
B|--3------------3--------3------------3-----|
G|-------3----------3---------3-----------3--| x4
D|-------------------------------------------|
G|-------------------------------------------|
D|-------------------------------------------|

The Chorus starts at (2:55)
D|----------3--------------------3-----------|
B|--3------------3--------3------------3-----|
G|-------3----------3---------3-----------3--|
D|-------------------------------------------|
G|-------------------------------------------|
D|-------------------------------------------|

D|----------3--------------------2-----------|
B|--3------------3--------3------------3-----|
G|-------2----------2---------2-----------2--|
D|-------------------------------------------|
G|-------------------------------------------|
D|-------------------------------------------|

D|---------2------------- \
B|--3------------3------- \ Play the chorus three times and on
G|------2-----------2---- \ the 3rd part, play this part 3 times
D|----------------------- \ /
G|----------------------- \
D|----------------------- \

The outro comes in at (3:13)
And this is played when says ďAnd you rip it from my
Hands and you swear itís all goneĒ
D|--5----3----2--2----3--|
B|--3----3----1--3----3--|
G|--3----2----2--2----2--| x2
D|-----------------------|
G|-----------------------|
D|-----------------------|

D|--5----3----2--2--|
B|--3----3----1--3--|
G|--3----2----2--2--|
D|------------------|
G|------------------|
D|------------------|

D|----------3--------------------2-----------|
B|--3------------3--------3------------3-----|
G|-------2-----------2--------2-----------2--|
D|-------------------------------------------|
G|-------------------------------------------|
D|-------------------------------------------|

D|----------5--------------------5-----------|
B|--3------------3--------3------------3-----|
G|-------3-----------3--------3-----------3--|
D|-------------------------------------------|
G|-------------------------------------------|
D|-------------------------------------------|

D|----------3--------------------2-----------|
B|--3------------3--------3------------3-----|
G|-------2-----------2--------2-----------2--|
D|-------------------------------------------|
G|-------------------------------------------|
D|-------------------------------------------|

D|----------5--------------------5-----------|
B|--3------------3--------3------------3-----|
G|-------3-----------3--------3-----------3--|
D|-------------------------------------------|
G|-------------------------------------------|
D|-------------------------------------------|

D|----------3--------------------2-----------|
B|--3------------3--------3------------3-----|
G|-------2----------2---------2-----------2--|
D|-------------------------------------------|
G|-------------------------------------------|
D|-------------------------------------------|

D|----------5--------------------5-----------|
B|--3------------3--------3------------3-----|
G|-------3----------3---------3-----------3--|
D|-------------------------------------------|
G|-------------------------------------------|
D|-------------------------------------------|

D|----------5----------|
B|--3------------3-----|
G|-------3----------3--|
D|---------------------|
G|---------------------|
D|---------------------|

Good song worth learning. Please rate :0
Tap to rate this tab
# A B C D E F G H I J K L M N O P Q R S T U V W X Y Z