Song name
# A B C D E F G H I J K L M N O P Q R S T U V W X Y Z

Mumford And Sons - For Those Below tab

                                  ~~~~~~~~~~~~~~~~~~~~~~~~~~~~~~~~~~~~~~~~
                                               For Those Below                
                                               Mumford & Sons 
                                                    Babel
                                  ~~~~~~~~~~~~~~~~~~~~~~~~~~~~~~~~~~~~~~~~
Tabbed by: Connor O.
Tuning: Drop D (DADGBD)



Comment or message any ideas or corrections. Please rate my tab. If you've got
problems with the tab, I'd encourage you to contact me with those problems so I
can fix the tab or provide advice for playing. Don't just give me a poor rating
and not give me any feedback. The idea is for us all to work together to create
a perfect finished product. This tab just represents the best I can do. It's 
definitely up for peer review.

The picking pattern is difficult. If you're having trouble seeing the chronological
order, try first playing a steady bass-line on the heavy D string and fitting the other
notes in to that bass-line. Then move on from there. If you're having trouble, look
for a tutorial on youtube. I'm sure there are plenty. Just keep at it. Don't quit.



Key:
where # represents a fret number

#h# - hammer
#p# - pull
/ \ - slides, up and down respectively.
 *  - time keeper. if you played a steady
      baseline, you'd see the notes are 
      displayed in the tab in the correct 
      chronological order. 



Intro Chords:
 
   D      D7     D6           Gm           Em    D5
e|-x--| |-x--| |-x--| |-x--| |-x-| |-x-| |-x-| |-x-|
G|-10-| |-10-| |-10-| |-10-| |-8-| |-7-| |-5-| |-3-|
B|-11-| |-11-| |-11-| |-7--| |-7-| |-7-| |-4-| |-2-|
D|-12-| |-10-| |-9--| |-8--| |-8-| |-7-| |-5-| |-0-|
A|-x--| |-x--| |-x--| |-x--| |-x-| |-x-| |-x-| |-0-|
E|-x--| |-x--| |-x--| |-x--| |-x-| |-x-| |-x-| |-x-|



Verse Chords:
 

  D5    Em   F#m/G#  A7    Bm      
e|-x-| |-x-| |-x-| |-x-| |-x-| 
G|-3-| |-x-| |-x-| |-2-| |-3-| 
B|-2-| |-0-| |-2-| |-0-| |-4-| 
D|-0-| |-2-| |-4-| |-2-| |-4-| 
A|-0-| |-2-| |-4-| |-0-| |-2-| 
E|-x-| |-0-| |-4-| |-x-| |-x-| 



Chorus Chords:
 

  D5    Em   F#m/G#  A7    G  
e|-x-| |-x-| |-x-| |-x-| |-x-| 
G|-3-| |-x-| |-x-| |-2-| |-x-| 
B|-2-| |-0-| |-2-| |-0-| |-4-| 
D|-0-| |-2-| |-4-| |-2-| |-5-| 
A|-0-| |-2-| |-4-| |-0-| |-5-| 
E|-x-| |-0-| |-4-| |-x-| |-5-| 



In case the tab doesn't make it clear,
here's the general verse strucutre using
the first words from each of the four
lines of Verse 1 using the spelled chords
above:

Helpless.... D5 Em F#m A7
Haunting.... D5 Em Bm  A7
There will...D5 Em F#m A7
As she's.... D5 Em Bm  A7



Intro:


   0:00

e|-------------------------------------------------------|
A|-10---------------10--------10h12------------10--------|
G|-----------11-------------------------11---------------|
D|-12-----12------------12----12-----12------------12----|
A|-------------------------------------------------------|
D|-0---------0----------------0---------0----------------|
   *      *      *      *     *      *      *      *      

  0:02

e|-------------------------------------------------------|
A|-10---------------10--------10h12------------10--------|
G|-----------11-------------------------11---------------|
D|-10-----10------------10----10-----10------------10----|
A|-------------------------------------------------------|
D|-0---------0----------------0---------0----------------|
   *      *      *      *     *      *      *      *  

  0:04

e|-------------------------------------------------------|
A|-10---------------10--------10h12------------10--------|
G|-----------11-------------------------11---------------|
D|-9------9-------------9-----9------9-------------9-----|
A|-------------------------------------------------------|
D|-0---------0----------------0---------0----------------|
   *      *      *      *     *      *      *      *  

  0:06

e|-------------------------------------------------------|
A|-10---------------10--------8----------------8---------|
G|-----------7--------------------------7----------------|
D|-8------8-------------9-----8------9-------------9-----|
A|-------------------------------------------------------|
D|-0---------0----------------0---------0----------------|
   *      *      *      *     *      *      *      *  

  0:09

e|-------------------------------------------------------|
A|-7----------------7---------7h8--------------8---------|
G|-----------7--------------------------7----------------|
D|-7------7-------------7-----7------7-------------7-----|
A|-------------------------------------------------------|
D|-0---------0----------------0---------0----------------|
   *      *      *      *     *      *      *      *  

  0:11

e|-------------------------------------------------------|
A|-5----------------5-------------------5----------------|
G|-----------4----------------4h6--------------6---------|
D|-5------5-------------5-----5------5-------------------|
A|-------------------------------------------------------|
D|-0---------0----------------0---------0----------------|
   *      *      *      *     *      *      *      *  

  0:13

e|-------------------------------------------------------|
A|-3----------------3-------------------3----------------|
G|-----------2----------------0h2--------------2---------|
D|-0------0-------------0------------0-------------0-----|
A|-------------------------------------------------------|
D|-0---------0----------------0---------0----------------|
   *      *      *      *     *      *      *      *  



e|-------------------------------------------------------|
A|-----------3--------------------------3----------------|
G|-0h2--------------2---------0h2--------------2---------|
D|--------0-------------0------------0-------------0-----|
A|-------------------------------------------------------|
D|-0---------0----------------0---------0----------------|
   *      *      *      *     *      *      *      *  


Verse 1:


  0:17
  Help-
e|-------------------------------------------------------|
A|-3----------------3---------3----------------0---------|
G|-----------2--------------------------2----------------|
D|-0------0-------------0-----0------0-------------0-----|
A|-------------------------------------------------------|
D|-0---------0----------------0---------0----------------|
   *      *      *      *     *      *      *      *  


  -less                                            she
e|-------------------------------------------------------|
A|-------------------------------------------------------|
G|-0----------------0---------0----------------0---------|
D|-----------2--------------------------2----------------|
A|--------2-------------2------------2-------------2-----|
D|-0---------0----------------0---------0----------------|
   *      *      *      *     *      *      *      *  

 
   lies                       across               the
e|-------------------------------------------------------|
A|----------------------------2----------------2---------|
G|-2----------------2-------------------0----------------|
D|-----------4----------------2------2-------------2-----|
A|--------4-------------4-----0---------0----------------|
D|-4---------4-------------------------------------------|
   *      *      *      *     *      *      *      *  


   stairs
e|-------------------------------------------------------|
A|-3----------------3-------------------3----------------|
G|-----------2----------------0h2--------------2---------|
D|-0------0-------------0------------0-------------0-----|
A|-------------------------------------------------------|
D|-0---------0----------------0---------0----------------|
   *      *      *      *     *      *      *      *  


   Haun-                     -ting   your
e|-------------------------------------------------------|
A|-3----------------3---------3----------------0---------|
G|-----------2--------------------------2----------------|
D|-0------0-------------0-----0------0-------------0-----|
A|-------------------------------------------------------|
D|-0---------0----------------0---------0----------------|
   *      *      *      *     *      *      *      *  


   daus                                 con-
e|-------------------------------------------------------|
A|-------------------------------------------------------|
G|-0----------------0---------0----------------0---------|
D|-----------2--------------------------2----------------|
A|--------2-------------2------------2-------------2-----|
D|-0---------0----------------0---------0----------------|
   *      *      *      *     *      *      *      *  


   -suming                              your
e|-------------------------------------------------------|
A|-3----------------3---------2----------------2---------|
G|-----------4--------------------------0----------------|
D|--------4-------------4-----2------2-------------2-----|
A|-2---------2----------------0---------0----------------|
D|-------------------------------------------------------|
   *      *      *      *     *      *      *      *  


   prayers
e|-------------------------------------------------------|
A|-3----------------3-------------------3----------------|
G|-----------2----------------0h2--------------2---------|
D|-0------0-------------0------------0-------------0-----|
A|-------------------------------------------------------|
D|-0---------0----------------0---------0----------------|
   *      *      *      *     *      *      *      *  


That's the basic structure of the verse.



Chrous:


  
                        You   told  me  life       was
e|-------------------------------------------------------|
A|-------------------------------------------------------|
G|-0----------------0---------0----------------0---------|
D|-----------2--------------------------2----------------|
A|--------2-------------2------------2-------------2-----|
D|-0---------0----------------0---------0----------------|
   *      *      *      *     *      *      *      *  


   long                                            but
e|-------------------------------------------------------|
A|-2----------------2---------2----------------2---------|
G|-----------0--------------------------0----------------|
D|-2------2-------------2-----2------2-------------2-----|
A|-0---------0----------------0---------0----------------|
D|-------------------------------------------------------|
   *      *      *      *     *      *      *      *  

   
   now                               that it's
e|-------------------------------------------------------|
A|-3----------------3---------3----------------0---------|
G|-----------2--------------------------2----------------|
D|-0------0-------------0-----0------0-------------0-----|
A|-------------------------------------------------------|
D|-0---------0----------------0---------0----------------|
   *      *      *      *     *      *      *      *  


   gone                                            You
e|-------------------------------------------------------|
A|-------------------------------------------------------|
G|-4----------------4---------4----------------4---------|
D|-----------5--------------------------5----------------|
A|--------5-------------5------------5-------------5-----|
D|-5---------5----------------5---------5----------------|
   *      *      *      *     *      *      *      *  


   find   yourself  on        top       as      the
e|-------------------------------------------------------|
A|-3----------------3------------------------------------|
G|-----------2----------------0----------------0---------|
D|-0------0-------------0---------------2----------------|
A|-----------------------------------2-------------2-----|
D|-0---------0----------------0---------0----------------|
   *      *      *      *     *      *      *      *  


   leader of          the     flock
e|-------------------------------------------------------|
A|-------------------------------------------------------|
G|-2----------------2---------4----------------4---------|
D|-----------4--------------------------5----------------|
A|--------4-------------4------------5-------------5-----|
D|-4---------4----------------5---------5----------------|
   *      *      *      *     *      *      *      *  


   Called to be     a         rock
e|-------------------------------------------------------|
A|-2----------------2---------2----------------2---------|
G|-----------0--------------------------0----------------|
D|-2------2-------------2-----2------2-------------2-----|
A|-0---------0----------------0---------0----------------|
D|-------------------------------------------------------|
   *      *      *      *     *      *      *      *  


                                     For those below
e|-------------------------------------------------------|
A|-2----------------2---------2----------------2---------|
G|-----------0--------------------------0----------------|
D|-2------2-------------2-----2------2-------------2-----|
A|-0---------0----------------0---------0----------------|
D|-------------------------------------------------------|
   *      *      *      *     *      *      *      *  


Repeat intro, Verse 2, Repeat intro



Verse 3 (switch to strumming):

Em7                     A7
I'll be locked up and stored
Em7            A7
In a lavender ward
Em7                    A7
'Cause my mind is just like hers,
          Em7                               A7
just as broken, just as crippled, just as burned
            D             Em           F#m           G
And then I find myself on top, as the leader of a flock
A7                              
Called to be a rock for those below


Strum through the intro chords and you're finished.
Tap to rate this tab
 
# A B C D E F G H I J K L M N O P Q R S T U V W X Y Z