Song name
# A B C D E F G H I J K L M N O P Q R S T U V W X Y Z

Mumford And Sons - Roll Away Your Stone tab

e|-0-2-0-----4-4/5--4-2-0--0-2-0-----0-2-2--0-2-0-----4-4/5--4-2-0--0-2-0-----0-2-0-0-|
B|-------2-0---------------------2-0--------------2-0---------------------2-0---------|
G|------------------------------------------------------------------------------------|
D|------------------------------------------------------------------------------------|
A|------------------------------------------------------------------------------------|
E|------------------------------------------------------------------------------------|

e|-0-2-0-----4-4/5--4-2-0--0-2-0-----0-2-2--0-2-0-----4-4/5--4-2-0--0-2-0-----4-7-5-4-|
B|-------2-0---------------------2-0--------------2-0---------------------2-0-------0-|
G|------------------------------------------------------------------------------------|
D|------------------------------------------------------------------------------------|
A|------------------------------------------------------------------------------------|
E|------------------------------------------------------------------------------------|
Tap to rate this tab
# A B C D E F G H I J K L M N O P Q R S T U V W X Y Z