Song name
# A B C D E F G H I J K L M N O P Q R S T U V W X Y Z

Mumm-ra - There She Is tab

CAPO 2nd

INTRO
---2-----3-----7---7-----7-----7-5-----5-----5---3-----3----------|
-----0-----0---------0-----0-------0-----0-----------0-----0---0--|
-------------------------------------7-----7---7---0-----0--------|
---------------------------------0-----0-----0---5-----5-----5----|
------------------------------------------------------------------|
-0-----0-----0---0-----0-----0------------------------------------|  x2

VERSE
---2-----3-----7---7-----7-----7-5-----5-----5---3-----3----------|
-----0-----0---------0-----0-------0-----0-----------0-----0---0--|
-------------------------------------7-----7---7---0-----0--------|
---------------------------------0-----0-----0---5-----5-----5----|
------------------------------------------------------------------|
-0-----0-----0---0-----0-----0------------------------------------|  x2

I cannot remember the last time
That you were not around and playing on my mind.
So I'm not about to let you go
Without a little something off my mind to let you know

G                            C
that I can better things for sure,
G                                     C
If you would just believe it could be something more. ohh


CHORUS
----------------------------------------------|
---------3------------------------------------|
-----0-----0---0-----0-------0----------------|
---2---2-----2-----0-------0------------------|
----------------------------------------------|
-0---------------3-----3-2-----2-0------------|  x4

Imagine waking up and there she is, there she is,
She's wrapped up with a smile from a well placed kiss.
Because she loves you and she always did,
Oh, what a dream but that's just all it is.

---------------------|
---0-----0-------1---|
-----0-----0---0-----|
-----------------2---|
-----------------3---|
-0-----0-----0-------|

VERSE
---2-----3-----7---7-----7-----7-5-----5-----5---3-----3----------|
-----0-----0---------0-----0-------0-----0-----------0-----0---0--|
-------------------------------------7-----7---7---0-----0--------|
---------------------------------0-----0-----0---5-----5-----5----|
------------------------------------------------------------------|
-0-----0-----0---0-----0-----0------------------------------------|  x2

I cannot remember the last time
That I went out alone and didn't rack my mind
For things that I had wished or thought to say
Things that wouldn't matter to you anyway.

G                                  C
But I know I can better things for sure
G                                   C
I've waited twenty years, I guess I'll wait one more. For you

CHORUS
----------------------------------------------|
---------3------------------------------------|
-----0-----0---0-----0-------0----------------|
---2---2-----2-----0-------0------------------|
----------------------------------------------|
-0---------------3-----3-2-----2-0------------|  x4

Imagine waking up and there she is, there she is,
She's wrapped up with a smile from a well placed kiss.
Because she loves you and she always did,
Oh, what a dream but that's just all it is.

---------------------|
---0-----0-----------|
-----0-----0---0-----|
-----------------2---|
-----------------3---|
-0-----0-----0-------|

---2-----3-----7---7-----7-----7-5-----5-----5---3-----3----------|
-----0-----0---------0-----0-------0-----0-----------0-----0---0--|
-------------------------------------7-----7---7---0-----0--------|
---------------------------------0-----0-----0---5-----5-----5----|
------------------------------------------------------------------|
-0-----0-----0---0-----0-----0------------------------------------|  x2

CHORUS
----------------------------------------------|
---------3------------------------------------|
-----0-----0---0-----0-------0----------------|
---2---2-----2-----0-------0------------------|
----------------------------------------------|
-0---------------3-----3-2-----2-0------------|  x4

Imagine waking up and there she is, there she is,
She's wrapped up with a smile from a well placed kiss.
Because she loves you and she always did,
Oh, what a dream but that's just all it is.

OUTRO
---------------------|
---0-----0-----------|
-----0-----0---0-----|
-----------------2---|
-----------------3---|
-0-----0-----0-------|
Tap to rate this tab
# A B C D E F G H I J K L M N O P Q R S T U V W X Y Z