Song name
# A B C D E F G H I J K L M N O P Q R S T U V W X Y Z

Mumm-ra - Light Up This Room tab

Light Up This Room:

E|-------------------------------------------|
B|-------------------------------------------|
G|------0-----------0----------------0-------| x8
D|-----------5-----------5-------------------|
A|-------------------------------------------|
E|-3--------------3-----------3--------------|

E|---------------------------------------------------------------------|
B|---------------------------------------------------------------------|
G|------0--------------------------------------------------------------|
D|-----------2---------4---------5----2---------5---------4---------5--|
A|---------------------------------------------------------------------|
E|-0--------------0------------0-----------0---------0---------0-------|

E|-----------------------------------------|-------------------------------------------|
B|-----------------------------------------|-----------------------0-------------------|
G|------0--------------0--------------0----|---------0------------------0--------0-----|
D|-----------5--------------5--------------|--------------5------------------5---------|
A|-3--------------3---------------3--------|----5--------------5-----------------------|
E|-----------------------------------------|-------------------------------------------|

E|-------------------------------------------|
B|-------------------------------------------|
G|------0-----------0----------------0-------| x8
D|-----------5-----------5-------------------|
A|-------------------------------------------|
E|-3--------------3-----------3--------------|

Chorus:

E|------------------------------------------------------------------------|
B|---------0-----------0-------------------1-----------1------------------|
G|-----0-----------0-----------0-------0-----------0----------------------|
D|--------------------------------------------------------------------0---|
A|-2-----------2-----------2-------3-----------3-----------3--------------|
E|------------------------------------------------------------------------|

E|---------------------------------------------------------------------------------|
B|----------5---------------4------------------3------------------2----------------|
G|------0-------0-------0-------0-------0-------0-------0-------0------------------|
D|---------------------------------------------------------------------------------|
A|--7---------------6---------------5---------------4------------------------------|
E|---------------------------------------------------------------------------------|

E|-------------------------------------------------------------------------|
B|---------0-----------0-------------------0-----------0-------------------|
G|-----0-----------0-----------0-------0-----------0-----------------------|
D|---------------------------------------------------------------------0---|
A|-2-----------2-----------2-------2-----------2-----------2---------------|
E|-------------------------------------------------------------------------|


*not second time*
E|--------------------------------------------------------------------|
B|------------------------------------------1-----------1-------------|
G|------0---------------0---------------0-----------0-----------0-----|
D|----------2---------------2-----------------------------------------|
A|----------------------------------2-----------2-----------2---------|
E|--0-----------0---2-----------0-------------------------------------|

All that's repeated as well and then it goes back to the verse.

it might be a bit wonky on places but you get the jist
Tap to rate this tab
# A B C D E F G H I J K L M N O P Q R S T U V W X Y Z