Song name
# A B C D E F G H I J K L M N O P Q R S T U V W X Y Z

Mumm-ra - Sick Deal tab

Help us improve GuitareTab! Take a short survey!
-------------------------------------------------------------------------------
			     THE SICK DEAL - MUMM-RA
-------------------------------------------------------------------------------
Tabbed by:nessi
Email:nesscutts@hotmail.co.uk

Tuning:standard

e|-------------------------12-----------------------12-----------------------|
B|----------13-----15-----------------13-----15----------------12-------13---|
G|---14-14-----14-----14-------14-14-----14------14------12-12-----12--------|
D|---------------------------------------------------------------------------|
A|---------------------------------------------------------------------------|
E|---------------------------------------------------------------------------|

e|---------------------------------------------------------------------------|
B|------15---------10------12-12-12------------------------------------------|
G|--12------10-10------10----------------------------------------------------|
D|---------------------------------------------------------------------------|
A|---------------------------------------------------------------------------|
E|---------------------------------------------------------------------------|


REPEAT TWICE
Related for Sick Deal tab