Song name
# A B C D E F G H I J K L M N O P Q R S T U V W X Y Z

Mumsdollar - Stick And Stones tab

-------------------------------------------------------------------------------
			  Sticks And Stones - Mumsdollar
-------------------------------------------------------------------------------
Tabbed by:Michael
Email:tallmcrfan@hotmail.co.uk

Tabbed this by ear and watching supersonicstudios on youtube. not 100% but pretty 
close. This is my first tab so go easy on me lol.

Tuning: Standard

Intro
e|-------------x2------------------------------------------------------------|
B|-----8-9-8-----------------------------------------------------------------|
G|----8------8---------------------------------------------------------------|
D|---8-----------------------------------------------------------------------|
A|---------------------------------------------------------------------------|
E|---------------------------------------------------------------------------|

Verse
e|---------------------------------------------------------------------------|
B|---------------------------x2--------------------------x2------------------|
G|---8--8888--8--8888--8--8888---8--8888--8--8888--8--8888-------------------|
D|---8--8888--8--8888--8--8888---6--6666--6--6666--6--6666-------------------|
A|---6--6666--6--6666--6--6666---6--6666--6--6666--6--6666-------------------|
E|------....-----....-----....------....-----....-----....-------------------|

e|---------------------------------------------------------------------------|
B|---------------------------------------------------------------------------|
G|--....-...--....-...--....-...--....-...--8--------------------------------|
D|--66666666--66666666--88888888--88888888--8--------------------------------|
A|--66666666--66666666--88888888--88888888--6--------------------------------|
E|--44444444--44444444--66666666--66666666--6--------------------------------|

Chorus
e|---------------------------------------------------------------------------|
B|---------------------------------------------------------------------------|
G|----------------x2---------------------x2----------------x2----------------|
D|--6--6--666--6--6--10--10-101010--10--10---6--6--666--6--6-----------------|
A|--6--6--666--6--6--10--10-101010--10--10---6--6--666--6--6-----------------|
E|--4--4--444--4--4--8---8--8-8-8---8---8----4--4--444--4--4-----------------|

Repeat intro and verse then play....

Chrous 2
e|---------------------------------------------------------------------------|
B|-----------x2-----------x2---------------x2----------x2-------------x2-----|
G|-8-8-888-8-8---------------------------------------------8-8-888-8-8-------|
D|-8-8-888-8-8--6-6-666-6-6--10-10-101010-10--6-6-666-6-6--8-8-888-8-8-------|
A|-6-6-666-6-6--6-6-666-6-6--10-10-101010-10--6-6-444-6-6--6-6-666-6-6-------|
E|-6-6-666-6-6--4-4-444-4-4--8--8--8-8-8--8---4-4-444-4-4--6-6-666-6-6-------|

e|---------------------------------------------------------------------------|
B|---------------------------------------------------------------------------|
G|------------x1-----------x1------------------x1----------x2----------------|
D|--6-6-666-6-6--8-8-888-8-8--10-10-101010-10-10-6-6-666-6-6-----------------|
A|--6-6-666-6-6--8-8-888-8-8--10-10-101010-10-10-6-6-666-6-6-----------------|
E|--4-4-444-4-4--6-6-666-6-6--8--8--8-8-8--8--8--4-4-444-4-4-----------------|
Bridge                                Sticks and stones........
e|---------------------------------------------------------------------------|
B|---------------------------------------------------------------------------|
G|----8---8----------...--...--...-------------------------------------------|
D|----8---8---6---8--888--888--888--8----------------------------------------|
A|----6---6---6---8--888--888--888--8----------------------------------------|
E|----6---6---4---6--666--666--666--6----------------------------------------|
Repeat Chorus 2 and then....
e|---------------------------------------------------------------------------|
B|---------------------------------------------------------------------------|
G|----8---8------------------------------------------------------------------|
D|----8---8---6/////---------------------------------------------------------|
A|----6---6---6/////---------------------------------------------------------|
E|----6---6---4/////---------------------------------------------------------|
End

| /  slide up
| . Palm Mute
Tap to rate this tab
# A B C D E F G H I J K L M N O P Q R S T U V W X Y Z