Mungo Jerry - In The Summer Time tab

Artist:   Mungo Jerry
Song:     In The Summertime
Tuning:   Standard

e-------12--12-12-----------------------|
B-12-14------------14-12-14-12----------|
G------------------------------12-13-9--|
D---------------------------------------|
A---------------------------------------|
E---------------------------------------|

e---------------------------------------------------------------------|
B---------------------------------------------------------------------|
G-12-11-9--9-11-9-7-7-9-11-7-9-11-7-9-11-7-9--------------------------|
D---------------------------------------------------------------------|
A---------------------------------------------------------------------|
E---------------------------------------------------------------------|

That is the main part in the whole song

Link:http://www.youtube.com/watch?v=6BM3j9pKXJ8&feature=av2n
Tap to rate this tab
 
# A B C D E F G H I J K L M N O P Q R S T U V W X Y Z