Song name
# A B C D E F G H I J K L M N O P Q R S T U V W X Y Z

Mungo Jerry - In The Summer Time tab

h = hammer on
p = pull off
/ = slide

e |---------------------------|-----------------------------|
b |0h2-5--5------2p0----------|0h2-5--5------2p0------------|
g |----------0h1------0h1-----|----------0h1------0h1-------|
d |------------------------2--|------------------------2----|
a |---------------------------|-----------------------------|
e |---------------------------|-----------------------------|..

|--------------------------------|------------------------------|
|-------------2p0-----2p0--------|------------------------------|
|---------0h1-----0h1-----0h1----|------------------------------|
|2/4-4-4----------------------2--|------------------------------|
|--------------------------------|------------------------------|
|--------------------------------|------------------------------|

This is just repeated throughout the whole song. Enjoy!
Tap to rate this tab
 
# A B C D E F G H I J K L M N O P Q R S T U V W X Y Z