Song name
# A B C D E F G H I J K L M N O P Q R S T U V W X Y Z

Municipal Waste - Thrash Dont Mind If I Do chords

Municipal Waste - Thrash? Don't Mind If I Do
Waste 'Em All (2003)
Tabbed by ruker
Standard Tuning EADGBE

--------------
Key:
--------------
.   Palm Mute
~   Vibrato
h   Hammer-On
p   Pull-Off
b   Bend
r   Release
/   Slide Up
\   Slide Down
--------------


Intro (0:02)
||------------------||
||------------------||
||---------7--6-----||
||-4-4-4-4-7--6-----||
||-2-2-2-2-5--4-----||
||------------------||
   . . . .


Bass Fill (0:05)   3x
||-------------------|-----------------||
||*-----------------*|-----------------||
||*-2-2-2-2-5-5-4-4-*|-----------------||
||-------------------|-3-3-3-3-5-5-5-5-||
                       ^Guitar Pick Slide


Riff A (0:08)                      4x
||-----------------------------------||
||*---------------------------------*||
||--4-4-4-4-7-7-6-6------------------||
||--4-4-4-4-7-7-6-6-5-5-5-5-7-7-7-7--||
||*-2-2-2-2-5-5-4-4-5-5-5-5-7-7-7-7-*||
||------------------3-3-3-3-5-5-5-5--||



Riff B (0:15)                                                      2x
||-------------------------------------------------------------------||
||*-----------------------------------------------------------------*||
||--4-4-4-4-7-7-6-6-4-4-4-4-7-7-6-6-4-4-4-4-7-7-6-6------------------||
||--4-4-4-4-7-7-6-6-4-4-4-4-7-7-6-6-4-4-4-4-7-7-6-6-5-5-5-5-7-7-7-7--||
||*-2-2-2-2-5-5-4-4-2-2-2-2-5-5-4-4-2-2-2-2-5-5-4-4-5-5-5-5-7-7-7-7-*||
||--------------------------------------------------3-3-3-3-5-5-5-5--||



Chorus (0:22)
||--------------------------------------------------------------|
||--------------------------------------------------------------|
||---------7-7-----4-4-4-4-4-4-4-4---------7-7-----4--4--4--4---|
||-5-5-5-5-7-7-7-7-4-4-4-4-4-4-4-4-5-5-5-5-7-7-7-7-4--4--4--4---|
||-5-5-5-5-5-5-7-7-2-2-2-2-2-2-2-2-5-5-5-5-5-5-7-7-2--2--2--2---|
||-3-3-3-3-----5-5-----------------3-3-3-3-----5-5--------------|


|-----------------------------------------------------------------||
|-----------------------------------------------------------------||
|---------7-7-----4-4-4-4-4-4-4-4---------7-7-----4-4-4-4-4-4-4-4-||
|-5-5-5-5-7-7-7-7-4-4-4-4-4-4-4-4-5-5-5-5-7-7-7-7-4-4-4-4-4-4-4-4-||
|-5-5-5-5-5-5-7-7-2-2-2-2-2-2-2-2-5-5-5-5-5-5-7-7-2-2-2-2-2-2-2-2-||
|-3-3-3-3-----5-5-----------------3-3-3-3-----5-5-----------------||



Solo (0:29)
||-15-15-15-15-----------------------------------15-15-15-15-18-18-17-17-20-20-20-20-20-20\---|
||-------------16-16-15-15--------------------------------------------------------------------|
||-------------------------17-17-17-17-17-17\-------------------------------------------------|
||--------------------------------------------------------------------------------------------|
||--------------------------------------------------------------------------------------------|
||--------------------------------------------------------------------------------------------|
  

|-15-15-15-15---------------------------------------------------------------------------------|
|-------------18-18-18-18-16-16-16-16-18-18-18-18-16-16-16-16-15-15-15-15---------------------|
|-------------------------------------------------------------------------17-17-17-17-17-17---|
|---------------------------------------------------------------------------------------------|
|---------------------------------------------------------------------------------------------|
|---------------------------------------------------------------------------------------------|


|-------------------------------------15-15-15-15-------------------------20-20-20-20-20-20---||
|-18-18-18-18-16-16-16-16-15-15-15-15-------------18-18-18-18-16-16-16-16---------------------||
|---------------------------------------------------------------------------------------------||
|---------------------------------------------------------------------------------------------||
|---------------------------------------------------------------------------------------------||
|---------------------------------------------------------------------------------------------||
 Note - Rhythm Plays Chorus



Riff B (0:36)                                                      2x
||-------------------------------------------------------------------||
||*-----------------------------------------------------------------*||
||--4-4-4-4-7-7-6-6-4-4-4-4-7-7-6-6-4-4-4-4-7-7-6-6------------------||
||--4-4-4-4-7-7-6-6-4-4-4-4-7-7-6-6-4-4-4-4-7-7-6-6-5-5-5-5-7-7-7-7--||
||*-2-2-2-2-5-5-4-4-2-2-2-2-5-5-4-4-2-2-2-2-5-5-4-4-5-5-5-5-7-7-7-7-*||
||--------------------------------------------------3-3-3-3-5-5-5-5--||



Chorus (0:43)
||------------------------------------------------------------------------------------||
||------------------------------------------------------------------------------------||
||------7-7----4---4-4-4-4\----------7-7-----4--4--4--4--4--4--4--4--4--4--4--4----4--||
||-5--5-7-7-7--4---4-4-4-4\--5-5-5-5-7-7-7-7-4--4--4--4--4--4--4--4--4--4--4--4----4--||
||-5--5-5-5-7--2---2-2-2-2\--5-5-5-5-5-5-7-7-2--2--2--2--2--2--2--2--2--2--2--2----2--||
||-3--3-----5----------------3-3-3-3-----5-5------------------------------------------||



The guitar solo is a bit hard to hear at parts, it's pretty much an outline.
Tap to rate this tab
# A B C D E F G H I J K L M N O P Q R S T U V W X Y Z