Song name
# A B C D E F G H I J K L M N O P Q R S T U V W X Y Z

Municipal Waste - Art Of Partying tab

The Art Of Partying 
Municipal Waste

Tabbed by: Ian
Email: ijrrevallo@yahoo.com

Tuning: Standard

0:00
e|--------------------------------------------------------------------------|
B|--------------------------------------------------------------------------|
G|--------------------------------------------------------------------------|
D|-7--10--10-10-10--9-----------------------------------------6h7-----------|
A|-5--8---8--8--8---7----------------7h8----------5h7--------------7h8-7----|
E|----------------------0-0-0-0-0-0-------0-0-0-0-----0-0-0-0---------------|
                        ...........       .......     .......
e|--------------------------------------------------------------------------|
B|--------------------------------------------------------------------------|
G|--------------------------------------------------------------------------|
D|----------------------------7--10--10-10-10--9----------------------------|
A|--------------7h8-----------5--8---8--8--8---7--------------7h8-----------|
E|-0-0-0-0-0-0-------0-0-0-0---------------------0-0-0-0-0-0------0-0-0-0---|
   ...........       .......                     ...........      .......
e|--------------------------------------------------------------------------|
B|--------------------------------------------------------------------------|
G|--------------------------------------------------------------------------|
D|-------------6h7------------------------------------7--10--10-10-10--9----|
A|-5h7--------------7h8-7-----------------------------5--8---8--8--8---7----|
E|-----0-0-0-0------------0-0-0-0-0-0-0-0-0-0-0-0-0-0-----------------------|
       .......            ...........................
e|--------------------------------------------------------------------------|
B|--------------------------------------------------------------------------|
G|--------------------------------------------------------------------------|
D|----------------------------------------6h7-------------------------------|
A|--------------7h8----------5h7---------------7h8-7-------------7h8--------|
E|-0-0-0-0-0-0-------0-0-0-0------0-0-0-0------------0-0-0-0-0-0------------|
   ...........       .......      .......            ...........
e|--------------------------------------------------------------------------|
B|--------------------------------------------------------------------------|
G|--------------------------------------------------------------------------|
D|----------7--10-10-10-10--9------------------------------------6h7--------|
A|----------5--8--8--8--8---7-------------7h8---------5h7------------7h8-7--|
E|-0-0-0-0---------------------0-0-0-0-0-0-----0-0-0-0-----0-0-0-0----------|
   .......                     ...........     .......     .......      
e|--------------------------------------------------------------------------|
B|--------------------------------------------------------------------------|
G|--------------------------------------------------------------------------|
D|-----------------------------7--10-10-10-10-------------------------------|
A|-----------------------------5--8--8--8--8--------------------------------|
E|-0-0-0-0-0-0-0-0-0-0-0-0-0-0----------------------------------------------|
   ...........................
0:17
e|--------------------------------------------------------------------------|
B|--------------------------------------------------------------------------|
G|--------------------------------------------------------------------------|
D|-7--------------9h10--------------------------12-10-9-10-9----------------|
A|---0-0-0-0-0-0--------0-0-0-0-0-0-0-0-0-0-0-0--------------0-0-0-0-0-0-0--|
E|--------------------------------------------------------------------------|
     ...........        .......................             ...............
e|--------------------------------------------------------------------------|
B|--------------------------------------------------------------------------|
G|--------------------------------------------------------------------------|
D|--------------------5--5-5-5--7-------------9h10--------------------------|
A|-0-0-0-0-0-0-0---5--3--3-3-3----0-0-0-0-0-0------0-0-0-0-0-0-0-0-0-0-0-0--|
E|-----------------3--------------------------------------------------------|
   .............                  ...........      .......................
e|--------------------------------------------------------------------------|
B|--------------------------------------------------------------------------|
G|--------------------------------------------------------------------------|
D|-12-10-9-10-9----------------------------------5--5-5-5-------------------|
A|--------------0-0-0-0-0-0-0-0-0-0-0-0-0-0---5--3--3-3-3-------------------|
E|--------------------------------------------3-----------------------------|
                ...........................
0:26
e|--------------------------------------------------------------------------|
B|--------------------------------------------------------------------------|
G|--------------------------------------------------------------------------|
D|------2------------------------------------------------2------------------|
A|-8-7--0--0-0-0-0-0-0-0-0--8-7--5------------------8-7--0--0-0-0-0-0-0-0-0-|
E|-------------------------------3--3-3-3-3-3-3-3-3-------------------------|
           ...............          ...............         ...............
e|--------------------------------------------------------------------------|
B|--------------------------------------------------------------------------|
G|--------------------------------------------------------------------------|
D|------------------7-5-7--------2------------------------------------------|
A|-3-3-3-3-3-3-3-3--5-3-5--8-7---0--0-0-0-0-0-0-0-0--8-7--5-----------------|
E|--------------------------------------------------------3-3-3-3-3-3-3-3-3-|
  ................                  ...............         ...............
e|--------------------------------------------------------------------------|
B|--------------------------------------------------------------------------|
G|--------------------------------------------------------------------------|
D|------2------------------------------------7-5-7----------5---------------|
A|-8-7--0--0-0-0-0-0-0-0-0--3-3-3-3-3-3-3-3--5-3-5---3-3-3--3--5-5----------|
E|---------------------------------------------------1-1-1-----3-3----------|
           ............... ................          ..... ... ...
0:35 
e|--------------------------------------------------------------------------|
B|--------------------------------------------------------------------------|
G|--------------------------------------------------------------------------|
D|--------------10--------------12-10\9---------------5-----------4---------|
A|--------------8---------------10--8\7---------------3-3-3-3-5-3-2---------|
E|-0-0-0-0-0-0-----0-0-0-0-0-0-----------0-0-0-0-0-0------------------------|
   ...........     ...........           ...........    .........
e|--------------------------------------------------------------------------|
B|--------------------------------------------------------------------------|
G|--------------------------------------------------------------------------|
D|--------------10---------------12-10\9----------------5-------------------|
A|-2------------8----------------10--8\7------10\9------3-3-3-3-5-3-2-------|
E|-0-0-0-0-0-0------0-0-0-0-0-0-----------0-0--8\7--0-0-------------*-------|
     .........      ...........           ...       ...
 
e|--------------------------------------------------------------------------|
B|--------------------------------------------------------------------------|
G|--------------------------------------------------------------------------|
D|--------------10--------------12-10\9---------------5-----------4---------|
A|--------------8---------------10--8\7---------------3-3-3-3-5-3-2---------|
E|-0-0-0-0-0-0-----0-0-0-0-0-0-----------0-0-0-0-0-0------------------------|
   ...........     ...........           ...........    .........
e|--------------------------------------------------------------------------|
B|--------------------------------------------------------------------------|
G|--------------------------------------------------------------------------|
D|--------------10---------------12-10\9----------------5-------------------|
A|-2------------8----------------10--8\7------10\9------3-3-3-3-5-3-2-------|
E|-0-0-0-0-0-0------0-0-0-0-0-0-----------0-0--8\7--0-0-------------*-------|
     .........      ...........           ...       ...

0:55
e|--------------------------------------------------------------------------|
B|--------------------------------------------------------------------------|
G|--------------------------------------------------------------------------|
D|---------------------5-----------4---------------------5------------------|
A|-2--3-3-2--5-5-3-----3-3-3-3-5-3-2---2--3-3-2--5-5-3---3-3-3-5-3-2--------|
E|-0--1-1-0--3-3-1---------------------0--1-1-0--3-3-1-------------*--------|

1:05
e|--------------------------------------------------------------------------|
B|--------------------------------------------------------------------------|
G|--------------------------------------------------------------------------|
D|-------------------------10--10\9------------------12-10\9----------------|
A|-2------------------------8---8\7------------------10--8\7----------------|
E|-0-0-0-0-0-0-0-0-0-0-0-0-----------0-0-0-0-0-0-0-0------------------------|
     .....................           ...............
e|--------------------------------------------------------------------------|
B|--------------------------------------------------------------------------|
G|--------------------------------------------------------------------------|
D|-------------------------------------------------4------------------------|
A|-------------------------3-3-3-3-3-3-3-3-5-5-3-3-2------------------------|
E|-0-0-0-0-0-0-0-0-0-0-0-0--------------------------------------------------|
   ............................................... 
e|--------------------------------------------------------------------------|
B|--------------------------------------------------------------------------|
G|--------------------------------------------------------------------------|
D|-------------------------10--10\9-----------------12-10\9-----------------|
A|-2------------------------8---8\7-----------------10--8\7---------10\9----|
E|-0-0-0-0-0-0-0-0-0-0-0-0----------0-0-0-0-0-0-0-0---------0-0-0-0--8\7----|
     .....................          ...............         .......

1:14
e|--------------------------------------------------------------------------|
B|--------------------------------------------------------------------------|
G|--------------------------------------------------------------------------|
D|-7--10--10-10-10--9-----------------------------------------6h7-----------|
A|-5--8---8--8--8---7----------------7h8----------5h7--------------7h8-7----|
E|----------------------0-0-0-0-0-0-------0-0-0-0-----0-0-0-0---------------|
                        ...........       .......     .......
e|--------------------------------------------------------------------------|
B|--------------------------------------------------------------------------|
G|--------------------------------------------------------------------------|
D|----------------------------7--10--10-10-10--9----------------------------|
A|--------------7h8-----------5--8---8--8--8---7--------------7h8-----------|
E|-0-0-0-0-0-0-------0-0-0-0---------------------0-0-0-0-0-0------0-0-0-0---|
   ...........       .......                     ...........      .......
e|--------------------------------------------------------------------------|
B|--------------------------------------------------------------------------|
G|--------------------------------------------------------------------------|
D|-------------6h7------------------------------------7--10--10-10-10-------|
A|-5h7--------------7h8-7-----------------------------5--8---8--8--8--------|
E|-----0-0-0-0------------0-0-0-0-0-0-0-0-0-0-0-0-0-0-----------------------|
     .......            ...........................

1:23
e|--------------------------------------------------------------------------|
B|--------------------------------------------------------------------------|
G|--------------------------------------------------------------------------|
D|-7--------------9h10--------------------------12-10-9-10-9----------------|
A|---0-0-0-0-0-0--------0-0-0-0-0-0-0-0-0-0-0-0--------------0-0-0-0-0-0-0--|
E|--------------------------------------------------------------------------|
     ...........        .......................             ...............
e|--------------------------------------------------------------------------|
B|--------------------------------------------------------------------------|
G|--------------------------------------------------------------------------|
D|--------------------5--5-5-5--7-------------9h10--------------------------|
A|-0-0-0-0-0-0-0---5--3--3-3-3----0-0-0-0-0-0------0-0-0-0-0-0-0-0-0-0-0-0--|
E|-----------------3--------------------------------------------------------|
   .............                  ...........      .......................
e|--------------------------------------------------------------------------|
B|--------------------------------------------------------------------------|
G|--------------------------------------------------------------------------|
D|-12-10-9-10-9----------------------------------5--5-5-5-------------------|
A|--------------0-0-0-0-0-0-0-0-0-0-0-0-0-0---5--3--3-3-3-------------------|
E|--------------------------------------------3-----------------------------|
                ...........................
1:32
e|--------------------------------------------------------------------------|
B|--------------------------------------------------------------------------|
G|--------------------------------------------------------------------------|
D|---------------------5-----------4---------------------5------------------|
A|-2--3-3-2--5-5-3-----3-3-3-3-5-3-2---2--3-3-2--5-5-3---3-3-3-5-3-2--------|
E|-0--1-1-0--3-3-1---------------------0--1-1-0--3-3-1-------------0--------|

1:41
e|--------------------------------------------------------------------------|
B|--------------------------------------------------------------------------|
G|--------------------------------------------------------------------------|
D|--------------10-10\9----------12-10\9--------------5-----------4---------|
A|-2------------8---8\7----------10--8\7--------------3-3-3-3-5-3-2---------|
E|-0-0-0-0-0-0-----------0-0-0-0----------0-0-0-0-0-0-----------------------|
     .........           .......          ...........   .........

e|--------------------------------------------------------------------------|
B|--------------------------------------------------------------------------|
G|--------------------------------------------------------------------------|
D|--------------10-10\9----------12-10\9--------------5---------------------|
A|-2------------8---8\7----------10--8\7------10\9----3-3-3-3-5-3-2---------|
E|-0-0-0-0-0-0-----------0-0-0-0----------0-0--8\7----------------*---------|
     .........           .......          ...           .........

e|--------------------------------------------------------------------------|
B|--------------------------------------------------------------------------|
G|--------------------------------------------------------------------------|
D|--------------10-10\9----------12-10\9--------------5-----------4---------|
A|-2------------8---8\7----------10--8\7--------------3-3-3-3-5-3-2---------|
E|-0-0-0-0-0-0-----------0-0-0-0----------0-0-0-0-0-0-----------------------|
     .........           .......          ...........   .........

e|--------------------------------------------------------------------------|
B|--------------------------------------------------------------------------|
G|--------------------------------------------------------------------------|
D|--------------10-10\9----------12-10\9------------------------------------|
A|-2------------8---8\7----------10--8\7------10\9--------------------------|
E|-0-0-0-0-0-0-----------0-0-0-0----------0-0--8\7--0-0---------------------|
     .........           .......          ...       ...    

1:59
e|--------------------------------------------------------------------------|
B|--------------------------------------------------------------------------|
G|--------------------------------------------------------------------------|
D|-7-10--10-10-10-----------------------------------------------------------|
A|-5-8---8--8--8----3-2-----------------------------------------------------|
E|------------------1-0-----------------------------------------------------|


************************************
| \   slide down
| h   hammer-on
| *   Pinch Harmonic
| ..  Palm Mute
************************************
Tap to rate this tab
# A B C D E F G H I J K L M N O P Q R S T U V W X Y Z