Municipal Waste - Death Ripper tab

. = palm mute
* = pinch harmonic

E]---------------------------------------------]
B]---------------------------------------------]
G]---------------------------------------------]
D]---------------------------------------------]
A]--3-5-3-2-3p2-----2---3-5-3-2-3p2------------]
E]--------------3-2-0---------------3-2--------]
  
  .. .  . . .     .. .  . . . 
E]--------------------------------]
B]--------------------------------]
G]--------------------------------]
D]--------------------------------] X4
A]--7-87-5-7-87578--5-87-3-5-3232-]
E]00-0--0-0-0-----00-0--0-0-0----3]

  .. .  . . . 	  .. .  . .          .. .  . . .     .. .  .  *    
E]----------------------------------------------------------------------]
B]----------------------------------------------------------------------]
G]----------------------------------------------------------------------]
D]--7-87-5-7-87578--5-87-3-5322h3p2----7-87-5-7-87578--5-87-3-5322h3p2--]
A]00-0--0-0-0-----00-0--0----------3200-0--0-0-0-----00-0--0----------32]
E]----------------------------------------------------------------------]
  
  .. .   . . .       .. .   . . .  
E]------------------------------------]
B]------------------------------------]
G]------------------------------------]  X2
D]--9-109-7-9-1097910--7-109-5-7-5454-]
A]--7-8-7-5-7-8-7578---5-8-7-3-5-32325]
E]00-0---0-0-0-------00-0---0-0-0----3]

   ...   ...  ... .     ...   ...  .......*
E]-----------------------------------------]
B]-----------------------------------------] X4
G]-----------------------------------------]
D]9---109---79-----57579---109---79-------7]
A]7---8 7---57-----35357---8 7---57-----57-]
E]-000---000--000-0-----000---000--000-0---]


    ...........         ...........   
E]-----------------------------------------]
B]-----------------------------------------]
G]-----------------------------------------] X4
D]2------------44-455-57-----------54------]
A]2------------22-233-35-----------32-32---]
E]0-000-000-000---------000-000-000-----3-2]

    .............   ......*****
E]-----------------------------------------]
B]-----------------------------------------]
G]-----------------------------------------]
D]2--------------52------------------------]
A]2--------------52-------8^98^------------]
E]0-000000000000030-000000-----------------]

				   
				   *
E]----------------------------------]
B]----------------------------------] X2
G]----------------------------------]
D]79-79-109-79-5757-79-79-109-79---7]
A]57-57-8 7-57-3535-57-57-8 7-57-57-]
E]----------------------------------]

    ......       ......   *
E]-----------------------------]
B]-----------------------------]
G]-----------------------------] X2
D]2-------4-4-457------54------]
A]2-------2-2-235------32-32---]
E]0-000000-0-0---000000-----3-2]

				   *
E]----------------------------------]
B]----------------------------------] X2
G]----------------------------------]
D]79-79-109-79-5757-79-79-109-79---7]
A]57-57-8 7-57-3535-57-57-8 7-57-57-]
E]----------------------------------]

    ...........         ...........   
E]-----------------------------------------]
B]-----------------------------------------]
G]-----------------------------------------] X4
D]2------------44-455-57-----------54------]
A]2------------22-233-35-----------32-32---]
E]0-000-000-000---------000-000-000-----3-2]

				   *
E]----------------------------------]
B]----------------------------------] X2
G]----------------------------------]
D]79-79-109-79-5757-79-79-109-79---7]
A]57-57-8 7-57-3535-57-57-8 7-57-57-]
E]----------------------------------]
Tap to rate this tab
 
# A B C D E F G H I J K L M N O P Q R S T U V W X Y Z