Song name
# A B C D E F G H I J K L M N O P Q R S T U V W X Y Z

Municipal Waste - Substitute Creature tab

Municipal Waste - Substitute Creature
Waste 'Em All (2003)
Tabbed by ruker
Standard Tuning EADGBE

--------------
Key:
--------------
.  Palm Mute
~  Vibrato
nh Natural Harmonic
/  Slide Up
\  Slide Down
--------------


Verse (0:01)
 Both Guitars                     4x
||----------------------------------|------------------||
||*--------------------------------*|------------------||
||----------------------------------|------------------||
||--4-4-4---------------6-5---------|-4----------------||
||*-2-2-2-3--3-3-4--4-4-4-3-5\4/5--*|-2----------------||
||--------1--1-1-2--2-2-----3\2/3---|------------------||


Chorus (0:17)       4x
||--------------------||
||*------------------*||
||--------------------||
||--4-4---------5-5---||
||*-2-2-4-4-5-5-3-3--*||
||------2-2-3-3-------||


Verse (0:20)
||----------------------------------|
||*--------------------------------*|
||----------------------------------|
||--4-4-4---------------6-5---------|
||*-2-2-2-3--3-3-4--4-4-4-3-5\4/5--*|
||--------1--1-1-2--2-2-----3\2/3---|


|------------------------------------||
|*----------------------------------*||
|------------------------------------||
|--4-4-4-----------------6-5---------||
|*-2-2-2-3-3-3-3-4-4-4-4-4-3-5-4-5--*||
|--------1-1-1-1-2-2-2-2-----3-2-3---||
     . .   . . .   . . .     . . .

Chorus (0:33)       4x
||--------------------|-----||
||*------------------*|-----||
||--------------------|-----||
||--4-4---------5-5---|-4---||
||*-2-2-4-4-5-5-3-3--*|-2---||
||------2-2-3-3-------|-----||


Drum Fill (0:37)
||--------------------||
||--------------------||
||--------REST--------||
||--------------------||
||--------------------||
||--------------------||


Chorus (0:40)       4x
||--------------------||
||*------------------*||
||--------------------||
||--4-4---------5-5---||
||*-2-2-4-4-5-5-3-3--*||
||------2-2-3-3-------||


Bridge (0:43)
 Left Guitar
||---------------------------------------------------------------||
||-------------------------------5~------------------~~~~--------||
||-------------------------------nh--tremolo-bar-dip-------------||
||-4-------------------------------------------------------------||
||-2-------------------------------------------------------------||
||---------------------------------------------------------------||
|                                                                 |
|Right Guitar                                                     |
||---------------------------------------------------------------||
||---------------------------------------------------------------||
||---------------------------------------------------------------||
||-4--4---------------6-5--------4-4-4---------------------------||
||-2--2-3--3-3-4--4-4-4-3-5\4/5--2-2-2-3-3-3-3-4-4-4-4-4-4--/9\--||
||------1--1-1-2--2-2-----3\2/3--------1-1-1-1-2-2-2-2-2-2--/7\--||


Verse (0:50)
 Both Guitars
||----------------------------------------------------------------------||
||----------------------------------------------------------------------||
||----------------------------------------------------------------------||
||-4-4-4---------------6-5--------4-4-4---------------6-5---------------||
||-2-2-2-3--3-3-4--4-4-4-3-5\4/5--2-2-2-3--3-3-4--4-4-4-3-6-5-----------||
||-------1--1-1-2--2-2-----3\2/3--------1--1-1-2--2-2-----4-3-----------||


Outro (0:58)
||--------------------|-----||
||*------------------*|-----||
||--------------------|-----||
||--4-4---------5-5---|-4---||
||*-2-2-4-4-5-5-3-3--*|-2---||
||------2-2-3-3-------|-----||
Tap to rate this tab
# A B C D E F G H I J K L M N O P Q R S T U V W X Y Z