Song name
# A B C D E F G H I J K L M N O P Q R S T U V W X Y Z

Municipal Waste - Eviction Party tab

Municipal Waste - Eviction Party
The Fatal Feast: Waste In Space (2012)
Tabbed by ruker
Standard Tuning EADGBE

--------------
Key:
--------------
.   Palm Mute
/   Slide Up
\   Slide Down
--------------


Intro (0:00)
 Left Guitar
||------------------------------------------------------------------------||
||------------------------------------------------------------------------||
||------------------------------------------------------------------------||
||-10\9-----10\9-----10\9-------------10\9-----10\9-----10\9--------------||
||-8-\7-----8-\7-----8-\7-------------8-\7-----8-\7-----8-\7-----8-8-8-8--||
||------0000-----0000-----000000000000-----0000-----0000-----00006-6-6-6--||
|                                                                . . . .   |
|Right Guitar                                                              |
||------------------------------------------------------------------------||
||------------------------------------------------------------------------||
||------------------------------------------------------------------------||
||-10\9-----10\9-----10\9-------------10\9-----10\9-----10\9--------------||
||-8-\7-----8-\7-----8-\7-------------8-\7-----8-\7-----8-\7-----8-8-8-8--||
||---------------------------------------------------------------6-6-6-6--||
                                                                 . . . .

Verse (0:04)
 Both Guitars
||-----------------------------------------------------------------------|
||-----------------------------------------------------------------------|
||-----------------------------------------------------------------------|
||-10\9-----10\9-----10\9-------------10\9-----7/9-----10\9--------------|
||-8-\7-----8-\7-----8-\7-------------8-\7-----5/7-----8-\7-----8-8-8-8--|
||------0000-----0000-----000000000000-----0000----0000-----00006-6-6-6--|
                                                                . . . .

|----------------------------------------------------------------------|
|----------------------------------------------------------------------|
|----------------------------------------------------------------------|
|-10\9-----10\9-----10\9-------------10\9-----10/9-----10\9------------|
|-8-\7-----8-\7-----8-\7-------------8-\7-----8-/7-----8-\7-----888888-|
|------0000-----0000-----000000000000-----0000-----0000-----0000666666-|
                                                                ......

|-----------------------------------------------------------------------||
|-----------------------------------------------------------------------||
|-----------------------------------------------------------------------||
|-10\9-----10\9-----10\9-------------10\9-----7/9-----10\9--------------||
|-8-\7-----8-\7-----8-\7-------------8-\7-----5/7-----8-\7-----8-8-8-8--||
|------0000-----0000-----000000000000-----0000----0000-----00006-6-6-6--||
                                                               . . . .

Chorus (0:15)
||---------------------------------------------------------------------||
||*-------------------------------------------------------------------*||
||---------------------------------------------------------------------||
||--7-7--7-9-9--9-1010-101010-101010-1012-12--12-13-13--13-13-13--13---||
||*-5-5--5-7-7--7-8-8--8-8-8--8-8-8--8-10-10--10-11-11--11-11-11--11--*||
||--5-5--5-7-7--7-8-8--8-8-8--8-8-8--8-10-10--10-11-11--11-11-11--11---||


Verse (0:23)
||-------------------------------------------------------------------------|
||-------------------------------------------------------------------------|
||-------------------------------------------------------------------------|
||-10\9-----10\9-----10\9-------------10\9-----10/9------10\9--------------|
||-8-\7-----8-\7-----8-\7-------------8-\7-----8-/7------8-\7-----8-8-8-8--|
||------0000-----0000-----000000000000-----0000-----0000------00006-6-6-6--|
                                                                  . . . .

|----------------------------------------------------------------------|
|----------------------------------------------------------------------|
|----------------------------------------------------------------------|
|-10\9-----10\9-----10\9-------------10\9-----7/9-----10\9-------------|
|-8-\7-----8-\7-----8-\7-------------8-\7-----5/7-----8-\7-----888888--|
|------0000-----0000-----000000000000-----0000----0000-----0000666666--|
                                                               ......

|-------------------------------------------------------------------------|
|-------------------------------------------------------------------------|
|-------------------------------------------------------------------------|
|-10\9-----10\9-----10\9-------------10\9-----10/9------10\9--------------|
|-8-\7-----8-\7-----8-\7-------------8-\7-----8-/7------8-\7-----8-8-8-8--|
|------0000-----0000-----000000000000-----0000-----0000------00006-6-6-6--|
                                                                 . . . .

|-----------------------------------------------------------------------||
|-----------------------------------------------------------------------||
|-----------------------------------------------------------------------||
|-10\9-----10\9-----10\9-------------10\9-----7/9-----10\9--------------||
|-8-\7-----8-\7-----8-\7-------------8-\7-----5/7-----8-\7-----8-8-8-8--||
|------0000-----0000-----000000000000-----0000----0000-----00006-6-6-6--||
                                                               . . . .

Chorus (0:39)
||-------------------------------------------------------------------|
||-------------------------------------------------------------------|
||-------------------------------------------------------------------|
||-7-7--7-9-9--9-1010-101010-101010-1012-12--12-13-13--13-13-13--13--|
||-5-5--5-7-7--7-8-8--8-8-8--8-8-8--8-10-10--10-11-11--11-11-11--11--|
||-5-5--5-7-7--7-8-8--8-8-8--8-8-8--8-10-10--10-11-11--11-11-11--11--|


|------------------------------------------------------------------|
|------------------------------------------------------------------|
|------------------------------------------------------------------|
|-7-7--7-9-9--9-1010-101010-101010-1012-12--12-13-13-1313131313----|
|-5-5--5-7-7--7-8-8--8-8-8--8-8-8--8-10-10--10-11-11-1111111111----|
|-5-5--5-7-7--7-8-8--8-8-8--8-8-8--8-10-10--10-11-11-1111111111----|


|------------------------------------------------------------------||
|------------------------------------------------------------------||
|------------------------------------------------------------------||
|-1313131313----1313131313----1313131313----1313131313----13131313-||
|-1111111111----1111111111----1111111111----1111111111----11111111-||
|-1111111111----1111111111----1111111111----1111111111----11111111-||


Pre-Bridge (0:49)
 Left Guitar
||----------------------------------------------------------------||
||----------------------------------------------------------------||
||----------------------------------------------------------------||
||-9-12--10-9-9--9-9-10--7-9-9--9-9-12--10-9-9--9-9-10--7-9-9--9--||
||-7-10--8--7-7--7-7-8---5-7-7--7-7-10--8--7-7--7-7-8---5-7-7--7--||
||----------------------------------------------------------------||
|                                                                  |
|Right Guitar                                                      |
||----------------------------------------------------------------||
||----------------------------------------------------------------||
||----------------------------------------------------------------||
||-9--------------------------------------------------------------||
||-7--------------------------------------------------------------||
||----------------------------------------------------------------||


Bridge (0:49)
 Both Guitars
||----------------------------------------------------------------|
||----------------------------------------------------------------|
||----------------------------------------------------------------|
||-9-12--10-9-9--9-9-10--7-9-9--9-9-12--10-9-9--9-9-10--7-9-9--9--|
||-7-10--8--7-7--7-7-8---5-7-7--7-7-10--8--7-7--7-7-8---5-7-7--7--|
||----------------------------------------------------------------|


|------------------------------------------------------------|
|------------------------------------------------------------|
|------------------------------------------------------------|
|------------------------------------------------------------|
|-7-10--8-7-7--7-7-8--5-7-7--7-7-10--8-7-7--7-7-8--5-7-7--7--|
|-5-8---6-5-5--5-5-6--3-5-5--5-5-8---6-5-5--5-5-6--3-5-5--5--|


|----------------------------------------------------------------||
|----------------------------------------------------------------||
|----------------------------------------------------------------||
|-9-12--10-9-9--9-9-10--7-9-9--9-9-12--10-9-9--9-9-10--7-9-9--9--||
|-7-10--8--7-7--7-7-8---5-7-7--7-7-10--8--7-7--7-7-8---5-7-7--7--||
|----------------------------------------------------------------||


Verse (0:23)
||-------------------------------------------------------------------------|
||-------------------------------------------------------------------------|
||-------------------------------------------------------------------------|
||-10\9-----10\9-----10\9-------------10\9-----10/9------10\9--------------|
||-8-\7-----8-\7-----8-\7-------------8-\7-----8-/7------8-\7-----8-8-8-8--|
||------0000-----0000-----000000000000-----0000-----0000------00006-6-6-6--|
                                                                  . . . .

|----------------------------------------------------------------------|
|----------------------------------------------------------------------|
|----------------------------------------------------------------------|
|-10\9-----10\9-----10\9-------------10\9-----7/9-----10\9-------------|
|-8-\7-----8-\7-----8-\7-------------8-\7-----5/7-----8-\7-----888888--|
|------0000-----0000-----000000000000-----0000----0000-----0000666666--|
                                                               ......

|-------------------------------------------------------------------------|
|-------------------------------------------------------------------------|
|-------------------------------------------------------------------------|
|-10\9-----10\9-----10\9-------------10\9-----10/9------10\9--------------|
|-8-\7-----8-\7-----8-\7-------------8-\7-----8-/7------8-\7-----8-8-8-8--|
|------0000-----0000-----000000000000-----0000-----0000------00006-6-6-6--|
                                                                 . . . .

|-----------------------------------------------------------------------||
|-----------------------------------------------------------------------||
|-----------------------------------------------------------------------||
|-10\9-----10\9-----10\9-------------10\9-----7/9-----10\9--------------||
|-8-\7-----8-\7-----8-\7-------------8-\7-----5/7-----8-\7-----8-8-8-8--||
|------0000-----0000-----000000000000-----0000----0000-----00006-6-6-6--||
                                                               . . . .
Tap to rate this tab
# A B C D E F G H I J K L M N O P Q R S T U V W X Y Z