Song name
# A B C D E F G H I J K L M N O P Q R S T U V W X Y Z

Municipal Waste - Death Prank tab

Municipal Waste - Death Prank
Wate 'Em All (2003)
Tabbed by ruker
Standard Tuning EADGBE


Chorus (0:01)                                        3x
||-----------------------------------------------------||
||*---------------------------------------------------*||
||-----------------------------------------------------||
||----------------------------7--9----7--10--9--7------||
||*-9-9-9-9-9----9-9-9-9-9----5--7----5--8---7--5-----*||
||--7-7-7-7-7----7-7-7-7-7-----------------------------||


Verse (0:06)                  3x
||------------------------------|-------||
||*----------------------------*|-------||
||------------------------------|-------||
||--7--7--9--9--10--10--9--9----|-------||
||*-5--5--7--7--8---8---7--7---*|-9-----||
||------------------------------|-7-----||
Tap to rate this tab
# A B C D E F G H I J K L M N O P Q R S T U V W X Y Z