Song name
# A B C D E F G H I J K L M N O P Q R S T U V W X Y Z

Municipal Waste - I Just Wanna Rock tab

Municipal Waste - I Just Wanna Rock
The Art Of Partying (2007)
Tabbed by ruker
Standard Tuning EADGBE

--------------
Key:
--------------
.   Palm Mute
ph  Pinch Harmonic
nh  Natural Harmonic
/   Slide Up
\   Slide Down
()  Tied Note
--------------


Intro (0:01)
 Lead Guitar
||-----------------------------------------------------------------------------|
||-------------------------------------------------------------------5---------|
||-------------------------------------------------------------------nh5-------|
||---------------------------------------------7--tremolo-bar----------nh5-5---|
||---------------------------------------8-7-8-ph--inverted-dip----------nhnh--|
||-----------------------------------------------------------------------------|
|                                                                              |
|Rhythm Guitars (Left & Right)                                                 |
||-----------------------------------------------------------------------------|
||-----------------------------------------------------------------------------|
||-----------------------------------------------------------------------------|
||-----------------------------------------------------------------------------|
||-------------2-----------------------3-------------------------2-------------|
||-6-5-3-6-5-3-0-----------6-5-3-6-5-3-1-----------6-5-3-6-5-3-1-0-------------|
   . . . . . .             . . . . . .             . . . . . . .

|------------------------------------------------||
|------------------------------------------------||
|------------------------------------------------||
|-(5)-tremolo-bar-dips---------------------------||
|------------------------------------------------||
|------------------------------------------------||
|                                                 |
|                                                 |
|------------------------------------------------||
|------------------------------------------------||
|------------------------------------------------||
|------------------------------------------------||
|-------------3----3-3-3-3-3-3-3-3-3-3-3-3-5-----||
|-6-5-3-6-5-3-1----1-1-1-1-1-1-1-1-1-1-1-1-3-----||
  . . . . . .      . . . . . . . . . . .

Chorus (0:13)
 Rhythm Guitars (Left & Right)                                          4x
||------------------------------------------------------------------------||
||*----------------------------------------------------------------------*||
||------------------------------------------------------------------------||
||--7----9-9-7-9----------------------10-\7-7-10-9------------------------||
||*-5----7-7-5-7----------------------8--\5-5-8--7-----------------------*||
||------------------0-0-0-0-0-0-0-0-0-----------------0-0-0-6-5-3-6-5-3---||
                    . . . . . . . . .                 . . . . . . . . .

Pre-Verse (0:36)
||-----------------------------------------------------------------------||
||*---------------------------------------------------------------------*||
||-----------------------------------------------------------------------||
||-----------------------------------------------------------------------||
||*-3--------------------------3-5----3---------------------------------*||
||--1----11111111111111111111111-3----1----11111111111111116-5-3-6-5-3---||
         ......................            ................. . . . . .

Verse (0:48)
||------------------------------------------------------------------------|
||*----------------------------------------------------------------------*|
||------------------------------------------------------------------------|
||------------------------------------------------------------------------|
||*-2------5---4---5-------5---4-5---2------5---4---5-7------4-5------5--*|
||--0----0-3-0-2-0-3-0-0-0-3-0-2-3-0-0----0-3-0-2-0-3-5----0-2-3----0-3---|
         .   .   .   . . .   .     .      .   .   .        .        .

|------------------------------------------------------------------------|
|*----------------------------------------------------------------------*|
|------------------------------------------------------------------------|
|--2------5---4---5-------5---4-5---2------5---4---5---------------------|
|*-0----0-3-0-2-0-3-0-0-0-3-0-2-3-0-0----0-3-0-2-0-3-5----3-2-3----2-0--*|
|------------------------------------------------------------------------|
        .   .   .   . . .   .     .      .   .   .                   .

|--------------------||
|--------------------||
|--------------------||
|--------------------||
|--------------------||
|-3-0-6-5-3-6-5-3-1--||
  . . . . . . . . .

Pre-Bridge (1:13)
 Rhythm Guitar Left
||-------------------------------------------------------------------|
||-------------------------------------------------------------------|
||-------------------------------------------------------------------|
||-------3-------------------------------3---------------------------|
||-2-----1---3---5---3-----5---3/5-2-----1---3---5---\3-3/5-5\3-3/5--|
||-0-000---0-1-0-3-0-1-000-3-0-1/3-0-000---0-1-0-3---\1-1/3-3\1-1/3--|
|    ...   .   .   .   ...   .       ...   .   .                     |
|Rhythm Guitar Right                                                 |
||-------------------------------------------------------------------|
||-------------------------------------------------------------------|
||-------------------------------------------------------------------|
||---------------------------------------3---------------------------|
||-2-----------------------5---3/5-2-----1---3---5---\3-3/5-5\3-3/5--|
||-0-----------------------3---1/3-0-000---0-1-0-3---\1-1/3-3\1-1/3--|


|-------------------------------------------------------------------||
|-------------------------------------------------------------------||
|-------------------------------------------------------------------||
|-------3-------------------------------3---------------------------||
|-2-----1---3---5---3-----5---3/5-2-----1---3---5---\3-3/5-5\3-3-3--||
|-0-000---0-1-0-3-0-1-000-3-0-1/3-0-000---0-1-0-3---\1-1/3-3\1-1-1--||
|   ...   .   .   .   ...   .       ...   .   .                      |
|                                                                    |
|-------------------------------------------------------------------||
|-------------------------------------------------------------------||
|-------------------------------------------------------------------||
|-------3-------------------------------3---------------------------||
|-2-----1---3---5---3-----5---3/5-2-----1---3---5---\3-3/5-5\3-3-3--||
|-0-000---0-1-0-3-0-1-000-3-0-1/3-0-000---0-1-0-3---\1-1/3-3\1-1-1--||
    ...   .   .   .   ...   .       ...   .   .

Bridge (1:24)
 Rhythm Guitars (Left & Right)
||-------------------------------------------------------------------|
||-------------------------------------------------------------------|
||-------------------------------------------------------------------|
||-------3-------------------------------3---------------------------|
||-2-----1---3---5---3-----5---3/5-2-----1---3---5---\3-3/5-5\3-3/5--|
||-0-000---0-1-0-3-0-1-000-3-0-1/3-0-000---0-1-0-3---\1-1/3-3\1-1/3--|
     ...   .   .   .   ...   .       ...   .   .

|-------------------------------------------------------------------|
|-------------------------------------------------------------------|
|-------------------------------------------------------------------|
|-------3-------------------------------3---------------------------|
|-2-----1---3---5---3-----5---3/5-2-----1---3---5---\3-3/5-5\3-3-3--|
|-0-000---0-1-0-3-0-1-000-3-0-1/3-0-000---0-1-0-3---\1-1/3-3\1-1-1--|
    ...   .   .   .   ...   .       ...   .   .

|-------------------------||
|-------------------------||
|-------------------------||
|-------------------------||
|-3-----------------------||
|-1----------6-5-3-6-5-3--||
             . . . . . .

Chorus (1:38)
||----------------------------------------------------------------------|
||----------------------------------------------------------------------|
||----------------------------------------------------------------------|
||-7----9-9-7-9----------------------10-\7-7-10-9-----------------------|
||-5----7-7-5-7----------------------8--\5-5-8--7-----------------------|
||-----------------0-0-0-0-0-0-0-0-0-----------------0-0-0-0-0-0-0-0-0--|
                   . . . . . . . . .                 . . . . . . . . .

|----------------------------------------------------------------------|
|----------------------------------------------------------------------|
|----------------------------------------------------------------------|
|-7----9-9-7-9----------------------10-\7-7-10-9-----------------------|
|-5----7-7-5-7----------------------8--\5-5-8--7-----------------------|
|-----------------0-0-0-0-0-0-0-0-0-----------------0-0-0-6-5-3-6-5-3--|
                  . . . . . . . . .                 . . . . . . . . .

|--------------------------------------------------------------------|
|--------------------------------------------------------------------|
|--------------------------------------------------------------------|
|-7----9-9-7-9---------------------10-\7-7-10-9----------------------|
|-5----7-7-5-7---------------------8--\5-5-8--7----------------------|
|--------------000-000-000-000-000--------------000-000-000-000-000--|
               ... ... ... ... ...              ... ... ... ... ...

|----------------------------------------------------|
|----------------------------------------------------|
|----------------------------------------------------|
|-7----9-9-7-9---------------------10-\7-7-10-9------|
|-5----7-7-5-7---------------------8--\5-5-8--7------|
|--------------000-000-000-000-000--------------000--|
               ... ... ... ... ...              ...

Outro (2:00)
 Lead Guitar
||--------------------------------------------------------------------||
||--------------------------------------------------------------------||
||--------------------------------------------------------------------||
||--------------------------7-tremolo-bar-return----------------------||
||--------------------8-7-8-ph----------------------------------------||
||--------------------------------------------------------------------||
|                                                                      |
|Rhythm Guitars (Left & Right)                                         |
||--------------------------------------------------------------------||
||--------------------------------------------------------------------||
||--------------------------------------------------------------------||
||-----------------------------------------7----9-9-7-9----10-9----\--||
||-----------------3-----------------------5----7-7-5-7----8--7----\--||
||-0-0-6-5-3-6-5-3-1-----------6-5-3-6-5-3----------------------------||
   . . . . . . . .             . . . . . .
Tap to rate this tab
# A B C D E F G H I J K L M N O P Q R S T U V W X Y Z