Song name
# A B C D E F G H I J K L M N O P Q R S T U V W X Y Z

Municipal Waste - The Inebriator tab

One of my favorite new Municipal Waste
songs
but never found a
 tab so gave it a shot only
 could figure out intro rest is a
 bit difficult to make out


Main Intro riff

E--------------------------------------------------------------|
B--------------------------------------------------------------|
G--------------------------------------------------------------|
D--------------------------------------------------------------|
A-------7---7--7-7-7-8--7--5--5-5-5/8--8--8/10/8---------------|
E-------5---5--5-5-5-6--5--3--3-3-3/6--6--6/8/6----------------|

2nd guitar goes on higher octave than 1st after one full bar of main riff on intro

E------------------------------------------------------------|
B------------------------------------------------------------|
G------------------------------------------------------------|
D-------5---5--5-5-5-6--5--3--3-3-3/6--6---6/8/6-------------|
A-------3---3--3-3-3-4--3--1--1-1-1/4--4--4/6/4--------------|
E------------------------------------------------------------|
Tap to rate this tab
 
# A B C D E F G H I J K L M N O P Q R S T U V W X Y Z