Song name
# A B C D E F G H I J K L M N O P Q R S T U V W X Y Z

Municipal Waste - Terror Shark tab

Band:  Municipal Waste
Album: Hazardous Mutation
Song:  Terror Shark

Copyright (c)  (Earache) (2005)
Version 1.0 - (17/06/06)

Transcribed By: Steve
Email:          stephen.elvidge1@ntlworld.com


.  - palm mute           /  - slide up to
\  - slide down to       ~  - vibrato
h  - hammer on           b  - Bend
p  - pull off            Suffixes for bend
t  - tap                 f  - full bend    h - half bend
ph - pinched harmonic    q  - quarter bend t - tap bend
                         p  - pre bend
*  - see comment         ^  - Hold bend    r release bend
x  - Stuccatto           ~  - vibrato bend
,  - slight palm mute    () - ghost note, sustained note
"  - tremolo note        <> - harmonic

Tuning E A D G B E


 Main/verse riff

        [---PM--]          [-PM-] [PM]   [PM]  [PM]
|------------------------------------------------------|
|------------------------------------------------------|
|------------------------------------------------------|
|---8-7------------------------------------------------|
|-5-----5-5-55-5-8-7-5-7-8-------------8---------------|
|--------------------------6-666-8-666---666-8-666-6-6-|

        [---PM--]          [-PM-] [PM]   [PM]  [PM]
|------------------------------------------------------|
|------------------------------------------------------|
|------------------------------------------------------|
|---8-7--------------5---------------------------------|
|-5-----5-5555-5-7-8---8-7-------------8---------------|
|--------------------------6-666-8-666---666-8-666-6-6-|

 Rpt Above

 Chorus

|-------------------------------------------------------|
|-------------------------------------------------------|
|-7-7--7-7/10\9----------------5-5--5-5/10\9-7--7--7--7-|
|-7-7--7-7/10\9-8-8--8-8--(8)--5-5--5-5/10\9-7--7--7--7-|
|-5-5--5-5/8-\7-8-8--8-8--(8)--3-3--3-3/8-\7-5--5--5--5-|
|---------------6-6--6-6--(6)----------------5--5--5--5-| Rpt


    [PM]  [PM] [PM]   [--------PM------]          [--------PM------]
|--------------------------------------------------------------------|
|--------------------------------------------------------------------|
|-7-----5-----4------------------------------------------------------|
|-5-----3-----2----8--------------------10-8-10-7--------------------|
|------------------6--6-666-666-666-666-8--6-8--5--5-555-555-555-555-|
|---333---111---00------------------------------5--------------------|

            [--------PM------]          [--------PM------] phph
|-------------------------------------------------------------------|
|-------------------------------------------------------------------|
|-------------------------------------------------------------------|
|-10-9-9-8--------------------10-8-10-7--------------------7--6--9\-|
|-8--7-7-6--6-666-666-666-666-8--6-8--5--5-555-555-555-555-------7\-|
|-------------------------------------5-----------------------------|

     [--------PM------]          [--------PM------]
|-----------------------------------------------------------|
|-----------------------------------------------------------|
|-----------------------------------------------------------|
|-8--------------------10-8-10-7-------------------7--6--9\-|
|-6--6-666-666-666-666-8--6-8--5-5-555-555-555-555-------7\-|
|------------------------------5-5-555-555-555-555----------|

     [--------PM------]          
|------------------------------|
|------------------------------|
|------------------------------|
|-8--------------------10-8-10-|
|-6--6-666-666-666-666-8--6-8--|
|------------------------------|

 Rpt Chorus

|-------------|
|-------------|
|-7--7--7--7--|
|-7--7--7--7--|
|-5--5--5--5--|
|-5--5--5--5--|

 Rpt Verse

 Guitar solo
                                           ph~~~~
|--------------------------------------------------|
|--------------------------------------------------|
|-----------------2p0------------------------------|
|-0-2-3-2-3-5-3-5-----3-5-3-2-0-2-3-2--0-----------|
|----------------------------------------3-5-------|
|--------------------------------------------------|

 Guitar 1
                                           ph~~~
[--------------------------------------------------|
[--------------------------------------------------|
[-----------------2p0------------------------------|
[-0-2-3-2-3-5-3-5-----3-5-3-2-0-2-3-2--0-----------|
[----------------------------------------3-5-------|
[--------------------------------------------------|
[Guitar 2
[                                          ph~~~
[-----------3---3-5-3---3--------------------------|
[-3-5-6-5-6---6-------6---6-5-3-5-6-5--3---3-------|
[----------------------------------------4---------|
[--------------------------------------------------|
[--------------------------------------------------|
[--------------------------------------------------|

 Backing for solo
  [----------------------------PM------------------------------]
|-------------------------------------------------------------------|
|-------------------------------------------------------------------|
|---------------------------------------------------------------5---|
|-7-7-7-7-7-7-7-7-----------------5-5-5-5-5-5-5-7-7-7-7-7-7-7-7-5---|
|-5-5-5-5-5-5-5-5-8-8-8-8-8-8-8-8-3-3-3-3-3-3-3-5-5-5-5-5-5-5-5-3---|
|-----------------6-6-6-6-6-6-6-6-----------------------------------|

  [----------------------------PM------------------------------]
|---------------------------------------------------------------|
|---------------------------------------------------------------|
|---------------------------------------------------------------|
|-7-7-7-7-7-7-7-7-----------------5-5-5-5-5-5-5-7-7-7-7-7-7-7-7-|
|-5-5-5-5-5-5-5-5-8-8-8-8-8-8-8-8-3-3-3-3-3-3-3-5-5-5-5-5-5-5-5-|
|-----------------6-6-6-6-6-6-6-6-------------------------------|




  [--------------------------PM----------------------------]
|-----------------------------------------------------------------|
|-----------------------------------------------------------------|
|-----------------------------------------------------------7--5--|
|-7-7-7-7-7-7-101010--------------------5-3-2-3-2-3-7-7-7-7-7--5--|
|-5-5-5-5-5-5-8-8-8-8-8-8-8-8-8-8-8-3-3-------------5-5-5-5-5--3--|
|-------------------6-6-6-6-6-6-6-6-------------------------------|


 Guitar 1
 [--------------------------PM---------------------------] 
[------------------------------------------------------------|
[------------------------------------------------------------|
[------------------------------------------------------------|
[-----7-------------------------------5-3-2-3-2-3-----7---7--|
[-5-5---5-5-8-7-7-8-8-8-8-8-8-8-8-3-3-------------5-5---5----|
[-----------------6-6-6-6-6-6-6-6----------------------------|
[Guitar 2
[[--------------------------PM---------------------------] 
[------------------------------------------------------------|
[------------------------------------------------------------|
[------------------------------------------------------------|
[-----7-------------------------------5-3-2-3-2-3-----7---7\-|
[-5-5---5-5-8-7-7-8-8-8-8-8-8-8-8-3-3-------------5-5---5-5\-|
[-----------------6-6-6-6-6-6-6-6----------------------------|

 Guitar 1
[-----------------------------------------------------|
[-----------------------------------------------------|
[----------5-5--5-5-10\9-7--7--7--7-\5--7--7--7--7-\5-|
[-8-8--8-8-5-5--5-5-10\9-7--7--7--7-\5--7--7--7--7-\5-|
[-8-8--8-8-3-3--3-3-8-\7-5--5--5--5-\3--5--5--5--5-\3-|
[-6-6--6-6--------------------------------------------|
[Guitar 2
[                        ~~~~~~~~~~~~~~~~~~~~~~~~~~~~
[-----------------------------------------------------|
[-----------------------------------------------------|
[-----------------------------------------------------|
[-------------------7--5-3--------------2----3--------|
[-----------------------------------------------------|
[-----------------------------------------------------|


 Guitar 1
                                        [----PM---]
[-----------------------------------------------------|
[-----------------------------------------------------|
[----------5-5--5-5-10\9-7--7--7--7-\5--7--7--7--7-\5-|
[-8-8--8-8-5-5--5-5-10\9-7--7--7--7-\5--7--7--7--7-\5-|
[-8-8--8-8-3-3--3-3-8-\7-5--5--5--5-\3--5--5--5--5-\3-|
[-6-6--6-6------------------------------5--5--5--5-\3-|
[Guitar 2
[~~~~~~~~~~~~~~~~~~~~~~~~
[-----------------------------------------------------|
[-----------------------------------------------------|
[------------------------10-10-10-10-10-10-10-10-10---|
[-----------------------------------------------------|
[-5------/7--------------8--8--8--8--8--8--8--8--8----|
[-----------------------------------------------------|


|-------------|
|-------------|
|-7--7--7--7--|
|-7--7--7--7--|
|-5--5--5--5--|
|-5--5--5--5--|




END

Tap to rate this tab
 
# A B C D E F G H I J K L M N O P Q R S T U V W X Y Z