Song name
# A B C D E F G H I J K L M N O P Q R S T U V W X Y Z

Municipal Waste - Blood Drive tab

Band:  Municipal Waste
Album: Hazardous Mutation
Song:  Blood Drive

Copyright (c)  (Earache) (2005)
Date (21/06/06)

Transcribed By: Steve
Email:          stephen.elvidge1@ntlworld.com


.  - palm mute           /  - slide up to
\  - slide down to       ~  - vibrato
h  - hammer on           b  - Bend
p  - pull off            Suffixes for bend
t  - tap                 f  - full bend    h - half bend
ph - pinched harmonic    q  - quarter bend t - tap bend
                         p  - pre bend
*  - see comment         ^  - Hold bend    r release bend
x  - Stuccatto           ~  - vibrato bend
,  - slight palm mute    () - ghost note, sustained note
"  - tremolo note        <> - harmonic

Tuning E A D G B E

 Intro/Main Riff

 Guitar 1
    [---PM--]
[-------------------------|
[-------------------------|
[-------------------------|
[------------7-----10\9-7-|
[-9----------5-7---8-\7-5-|
[-7-77777777---5-x--------|
[Guitar 2
[   [---PM--]
[-------------------------|
[-------------------------|
[-------------------------|
[------------7-----10\9-7-|
[-9----------5-7---8-\7-5-|
[-7------------5-x--------| Rpt

    [---PM--]
|-------------------------|
|-------------------------|
|-------------------------|
|------------7-----10\9-7-|
|-9----------5-7---8-\7-5-|
|-7-77777777---5-x--------| Rpt 4 X

 Chorus

|-----------------------|
|-----------------------|
|-----------------------|
|----------------7------|
|-9-9--7/10-9-9--5-7-10-|
|-7-7--5/8--7-7----5-8--| Rpt

    [-PM]       [-PM]
|---------------------------|
|---------------------------|
|---------------------------|
|--------------------7------|
|-9------7/10-9------5-7-10-|
|-7-7777-5/8--7-7777---5-8--| Rpt


|---------------------------------------------------------|
|---------------------------------------------------------|
|---------------------------------------------<5>---------|
|-------------------------------------------------<5>-----|
|-9-----------------------(9)-------------------------<5>-|
|-7-----------------------(7)-----------------------------|

                                                        Trem dive
|------------------------------------------------------------|
|------------------------------------------------------------|
|---------------------------------------------<5>------------|
|-------------------------------------------------<5>--------|
|-9-----------------------(9)-------------------------<5>----|
|-7-----------------------(7)--------------------------------|

    [-PM-]  [-PM-]  [-PM-]
|-------------------------------|
|-------------------------------|
|-------------------------------|
|-4-------5-------7-------5\4-2-|
|-2-------3-------5-------3\2-0-|
|---0-0-0---0-0-0---0-0-0-------|

    [-PM-]  [-PM-]  [-PM-][-PM-]
|---------------------------------|
|---------------------------------|
|---------------------------------|
|-4-------5-------7-------5\4---2-|
|-2-------3-------5-------3\2-0-0-|
|---0-0-0---0-0-0---0-0-0---------|

[-PM-]  [-PM-]  [-PM-]
|-------------------------------|
|-------------------------------|
|-------------------------------|
|-4-------5-------7-------5\4-2-|
|-2-------3-------5-------3\2-0-|
|---0-0-0---0-0-0---0-0-0-------| Rpt


|-------------------------------------|
|-------------------------------------|
|-------------------------------------|
|-5-5-5-5-5-5-5-5/7-9-9-9-9-9-9-7-7-7-|
|-3-3-3-3-3-3-3-3/5-7-7-7-7-7-7-5-5-5-|
|-------------------------------------| Rpt

 Guitar 1
[-------------------------------------|
[-------------------------------------|
[-------------------------------------|
[-5-5-5-5-5-5-5-5/7-9-9-9-9-9-9-7-7-7-|
[-3-3-3-3-3-3-3-3/5-7-7-7-7-7-7-5-5-5-|
[-------------------------------------|
[Guitar 2
[-------------------------------------|
[-------------------------------------|
[-------------------------------------|
[-5-----------------9-9-9-9-9-9-7-7-7-|
[-3-----------------7-7-7-7-7-7-5-5-5-|
[-------------------------------------|


|---------------------------|
|---------------------------|
|---------------------------|
|-5-5--5-5-5-7-9-9--9-9\7-7-|
|-3-3--3-3-3-5-7-7--7-7\5-5-|
|---------------------------| Rpt 3 X

 Guitar solo with wah

     h   h   h   h   h                                  ~~~~~~~~~~~~
|----------------------------------------1212-12/1414---------------|
|----------------------------------------1313-13/1515-15fb----------|
|-7--9p7-9p7-9p7-9p7-9/12-11-12/14-12-14----------------------------|
|-------------------------------------------------------------------|
|-------------------------------------------------------------------|
|-------------------------------------------------------------------|

 Rpt Verse
 Rpt Intro once
 Rpt Chorus

|-----|
|-----|
|-----|
|-----|
|-9\--|
|-7\--|




END

Tap to rate this tab
# A B C D E F G H I J K L M N O P Q R S T U V W X Y Z