Song name
# A B C D E F G H I J K L M N O P Q R S T U V W X Y Z

Municipal Waste - Headbanger Face Rip tab

-------------------------------------------------------------------------------
			     Headbanger Face Rip - Municipal Waste
-------------------------------------------------------------------------------
Tabbed by:Greg M


Tuning:E standard

 For this song, my counting for the most part is wrong.

Intro
e|---------------------------------------------------------------------------|
B|---------------------------------------------------------------------------|
G|---------------10----------------------------------------------------------|
D|---------------10--10-9-7-5-7-5-2---------8------7-8------------------7-8--|
A|-0-0-0-0-0-0-0-8---8--7-5-3-5-3-0-0000000-6-0000-5-6-000000-[6]-00000-5-6--|
E|-------------------------------------------------5-6-----------------------|

End intro, begin chaos
(Riff 1)
e|---------------------------------------------------------------------------|
B|---------------------------------------------------------------------------|
G|---------------------------------------------------------------------------|
D|-------5-------7-------5-------7-------8-------7-8-----------------7-8-----|
A|-22222-3-22222-5-22222-3-22222-5-00000-6-00000-5-6-00000-[6]-00000-5-6-----|
E|-----------------------------------------------5-6-------------------------|

Riff 2
All tremolo picking, except the chords
e|---------------------------------------------------------------------------|
B|---------------------------------------------------------------------------|
G|---------------------------------------------------------------------------|
D|----------------------------------------------------10-9-7-5-7-------------|
A|-3-0000-3-0000-3-0000-2-0000-3-0000-3-0000-3-0000-2-8--7-5-3-5-8-5555------|
E|---------------------------------------------------------------------------|

e|---------------------------------------------------------------------------|
B|---------------------------------------------------------------------------|
G|---------------------------------------------------------------------------|
D|---------------------------------------------------------------------------|
A|-8-5555-8-5555-7-5555-8-5555-8-5555-5-[8]-[7]-[5]-[3]-[5]-[3]--------------|
E|---------------------------------------------------------------------------|

Riff 3
e|---------------------------------------------------------------------------|
B|---------------------------------------------------------------------------|
G|----------------------------------7-5-4------------------------------------|
D|-5-4-5-2----------5-4-5-7-5-5-4-5-5-3-2-222222-[2]-------------------------|
A|-3-2-3-0-00000000-3-2-3-5-3-3-2-3------------------------------------------|
E|---------------------------------------------------------------------------|

Riff 4
e|-------------------------------------------------------------------------------------|
B|-------------------------------------------------------------------------------------|
G|-------------------------------------------------------------------------------------|
D|--10-9-7-5-4/5-----------------------------------------------------------------------|
A|--8--7-5-3-2/3-----------------------------------------------------------------------|
E|-------------------------------------------------------------------------------------|




| /  slide up
| \  slide down
| h  hammer-on
| p  pull-off
| ~  vibrato
| [] harmonic
| x  Mute note
===============================================================================
Tap to rate this tab
# A B C D E F G H I J K L M N O P Q R S T U V W X Y Z