Song name
# A B C D E F G H I J K L M N O P Q R S T U V W X Y Z

Muppets - Mah Na Mah Na tab

---------------------------------------------------------------------------
                             Mahna Mahna Ė The Muppets
---------------------------------------------------------------------------


Tabbed by: Tom
E-mail: tommo299@gmail.com

This is pretty much the whole song except that bit where he goes crazy in the middle

Tuning: Drop E down to C or you can play it up the octave on 12

The bit where heís saying mahna mahna doesnít sound very good but its right. It sounds 
much better to just sing the mahna mahna part but if you really wanna play it itís there.
c

This is the mahna mahna bit

e|-----------------------------------------------------------------------------|
B|-----------------------------------------------------------------------------|
G|-----------------------------------------------------------------------------|
D|-----------------------------------------------------------------------------|
A|-----------------------------------------------------------------------------|
E|---4p3-2p1-------------------------------------------------------------------|


Then the pink things say this

e|---5-8-10-7-------------------5-8-10-7-------------------------------------|
B|------------8--------------------------------------------------------------|
G|---------------------------------------------------------------------------|
D|---------------------------------------------------------------------------|
A|---------------------------------------------------------------------------|
E|-----------------4p3-2p1------------------4p3-2p1--------------------------|

e|----5-8-10-7------5-7---5-7--------------------------------------------------|
B|-------------8--------8-----8---------8-8-8-8-8------------------------------|
G|--------------------------------9-7------------------------------------------|
D|-----------------------------------------------------------------------------|
A|-----------------------------------------------------------------------------|
E|-----------------------------------------------------------------------------|
Then the muppet goes mahna mahna crazy. It sounds much better to just sing the mahna 
mahna part but if you really wanna play it its there.

************************************

| /   slide up
| \   slide down
| h   hammer-on
| p   pull-off
| ~   vibrato
| +   harmonic
| x   Mute note
| b   Bend
| pb  Pre-bend
| br  Bend release
| pbr Pre-bend release
| brb Bend release bend

************************************
Tap to rate this tab
# A B C D E F G H I J K L M N O P Q R S T U V W X Y Z