Murat Evgin - Bambaska Bir Sehir tab

------------------------------------------------------------------------
   +       +       +       +         +       +       +       +
e:----------------------------|-------------------------------------|
B:----------------------------|-------------------------------------|
G:---2--2----4--5------9------|---7--7----5-4-7---------------------|
D:----------------------------|-------------------------------------|
A:----------------------------|-------------------------------------|
E:----------------------------|-------------------------------------|

------------------------------------------------------------------------
   +       +       +       +         +       +       +       +
e:----------------------------|-------------------------------------|
B:----------------------------|-------------------------------------|
G:---5--5----4--2---5---------|----4--4---2--1----4-----------------|
D:----------------------------|-------------------------------------|
A:----------------------------|-------------------------------------|
E:----------------------------|-------------------------------------|

e:----------------------------|-------------------------------------|
B:----------------------------|-------------------------------------|
G:---2--2----4--5------9------|---7--7----5-4-7---------------------|
D:----------------------------|-------------------------------------|
A:----------------------------|-------------------------------------|
E:----------------------------|-------------------------------------|

------------------------------------------------------------------------
   +       +       +       +         +       +       +       +
e:----------------------------|-------------------------------------|
B:----------------------------|-------------------------------------|
G:---5--5----4--2---5---------|----4--4---2--1----4-----------------|
D:----------------------------|-------------------------------------|
A:----------------------------|-------------------------------------|
E:----------------------------|-------------------------------------|

-------------------------------
   +       +       +       +   
e:------------------------------|
B:------------------------------|
G:---5--4----2---4--2---1----4--|
D:------------------------------|
A:------------------------------|
E:------------------------------| http://www.muratevgin.com/
Tap to rate this tab
 
# A B C D E F G H I J K L M N O P Q R S T U V W X Y Z