Song name
# A B C D E F G H I J K L M N O P Q R S T U V W X Y Z

Murder By Death - Intergalactic Menopause tab

----------------------------------------------------------------------------
	        Intergalactic Menopause - Murder By Death
----------------------------------------------------------------------------
Tabbed by:MCiccone

Email:McDaddy0945@aol.com

Tuning: Standard 

The Intro is broken up into two major parts, the first Riff is the first like
16 seconds before the cello, and the second riff is when the cello kicks in up
untill the guitar is virtually inaudible.

Intro:

Riff 1:

e|-------------------------------------------------------------------------|
B|-------------------------------------------------------------------------|
G|-------------------------------------------------------------------------|
D|-------------------------------------------------------------------------|
A|----0-4-0------0-4-0---7-7-4--4-0--7-7-4--4-0-----0-4-0-----4-4----------|
E|--5-------0-5--------5-------------------------/5------0-/5-----5\-------|

e|------------------------|
B|------------------------|
G|------------------------|
D|------------------------|
A|-----4-4---0-4-0--------|
E|--/5-----5-------5\-----| End

Riff 2:

e|-------------------------------------------------------------------------|
B|-------------------------------------------------------------------------|
G|-------------------------------------------------------------------------|
D|-------------------------------------------------------------------------|
A|-------0-4---------0-4------5/7-7-4-----5/7-7-4---------0-4----------0-4-|
E|--0-/5-----5-0--/5-----5-0----------5-0---------5-0--/5------5-0--/5-----|

e|--------------------------------|
B|--------------------------------|
G|--------------------------------|
D|--------------------------------|
A|------4---4----4---4----4-------|
E|--5-0---5---5----5---5----5-----| End Intro

He does a little bit of strange muttings all along the way to provide a little
more rythm, i think you can figure that out, it would be impossible for me to
put into tablature

Any ways, all that extra stuff you may hear in the background is the bass, which
might throw you off a little.


Tap to rate this tab
# A B C D E F G H I J K L M N O P Q R S T U V W X Y Z