Murder City Devils - 18 Wheels tab

Here's a correction to the other version.

|---------------------------------------------------------------------------|
|---------------------------------------------------------------------------|
|---------------------------------------------------------------------------|
|---------------------------------------------------------------------------|
|0----0----0----2------3----3----3-----------------------3---2-------5---3--|
|-------------------------------------0----1----1----1-----------3----------|

|---------------------------------------------------------------------------|
|---------------------------------------------------------------------------|
|---------------------------------------------------------------------------|
|---------------------------------------------------------------------------|
|0----0----0----2------3----3----3-----------------------3---2-------5------|
|-------------------------------------0----1----1----1-----------3----------|
Tap to rate this tab
 
# A B C D E F G H I J K L M N O P Q R S T U V W X Y Z