Song name
# A B C D E F G H I J K L M N O P Q R S T U V W X Y Z

Murder City Devils - 364 Days tab

Help us improve GuitareTab! Take a short survey!
364 Days by the Murder City Devils
Tabbed by Kramer


Intro
(0:00)
Rythm:         C                      Amin                   G
Piano:
e|--------------------|--------------------|--------------------|
B|--------------------|--------------------|--------------------|
G|--------5-----------|-4--------2---------|-4-------0----------|
D|--------------------|--------------------|--------------------|
A|--------------------|--------------------|--------------------|
E|--------------------|--------------------|--------------------|

          Amin                      G                   F
e|--------------------|--------------------|--------------------|
B|--------------------|--------------------|--------------------|
G|-0------2-----------|-4--------0---------|-3-------2----------|
D|--------------------|--------------------|--------------------|
A|--------------------|--------------------|--------------------|
E|--------------------|--------------------|--------------------|


Verses
           (0:15)
R:          C                    Amin                    G
Lead:
e|-1--0---------------|-1--0---------------|--------------------|--------------------|
B|-------3--0---------|-------3------------|--1--0--------------|--------------------|
G|--------------------|----------2---------|--------2--0--------|--------------------|
D|--------------------|--------------------|--------------------|--------------------|
A|--------------------|--------------------|--------------------|--------------------|
E|--------------------|--------------------|--------------------|--------------------|

                    Amin             G                    F
e|--------------------|--------------------|--------------------|--------------------|
B|--------------------|--1--0--------------|--1--0--------------|--------------------|
G|-------0--2---------|--------2--0--------|--------2-----------|--------------------|
D|-2--3---------------|--------------------|-----------3--------|--------------------|
A|--------------------|--------------------|--------------------|--------------------|
E|--------------------|--------------------|--------------------|--------------------|

Refrain
(1:01)
C                  Amin                    G                                          Amin
Organ:

|--13--13--12--12----|--13--13--12--12----|--13--13--12--12----|--13--12---------12-|
|--------------------|--------------------|--------------------|----------13--15----|
|--------------------|--------------------|--------------------|--------------------|
|--------------------|--------------------|--------------------|--------------------|
|--------------------|--------------------|--------------------|--------------------|
|--------------------|--------------------|--------------------|--------------------|

                   G                     F
|--13--13--12--12----|--13--13--12--12----|--------------------|--------------------|
|--------------------|--------------------|--------------------|--------------------|
|--------------------|--------------------|--------------------|--------------------|
|--------------------|--------------------|--------------------|--------------------|
|--------------------|--------------------|--15----------------|--------------------|
|--------------------|--------------------|------15--13--12----|--------------------|


Bridge
2:39

E  Amin   G   F
E  Amin   C   G
Related for 364 Days tab