Song name
# A B C D E F G H I J K L M N O P Q R S T U V W X Y Z

Murder City Devils - I Want A Lot Now tab

 -------------------------------------------------------------------------------
			     I Want A Lot Now--Murder City Devils
-------------------------------------------------------------------------------
Tabbed by: Chris
Email: dmm55mm@yahoo.com--ive got more tabs that arent on here if you really want them--thanks.

Tuning: Standard

e|--------------------------------------------------|
B|--------------------------------------------------|
G|-4~---4-4-4/7-7\4~----2----4~---4-4-4/7-7\4~---2--|
D|-4~---4-4-4/7-7\4~----2----4~---4-4-4/7-7\4~---2--|
A|-2~---2-2-2/5-5\2~----0----2~---2-2-2/5-5\2~---0--|
E|--------------------------------------------------|

Not exact number of strums--you can figure it out
e|--------------------------|
B|--------------------------|
G|-44444/77\4444--22--------|
D|-44444/77\4444--22----X2--|
A|-22222/55\2222--00--------|
E|--------------------------|

Chorus
e|-------------------------------------------------------|
B|-------------------------------------------------------|
G|---------------222222222---5/444444444\5/4444444-------|
D|---555555555---222222222---5/444444444\5/4444444---X2--|
A|---555555555---000000000---3/222222222\3/2222222-------|
E|---333333333-------------------------------------------|


Verse--Palm muting--listen and you can figure it out
e|----------------|
B|----------------|
G|--4444444444/5--|
D|--4444444444/5--|
A|--2222222222/3--|
E|----------------|

Thats the entire song without the leads.  You can figure those out with what you have here.


| /  slide up
| \  slide down
| h  hammer-on
| p  pull-off
| ~  vibrato
| +  harmonic
| x  Mute note
===============================================================================
Tap to rate this tab
# A B C D E F G H I J K L M N O P Q R S T U V W X Y Z