Song name
# A B C D E F G H I J K L M N O P Q R S T U V W X Y Z

Murder City Devils - 18 Wheels tab

I'm not used to tabbing songs, but i think I have this one down-pat.

|---------------------------------------------------------------------------|
|---------------------------------------------------------------------------|
|---------------------------------------------------------------------------|
|---------------------------------------------------------------------------|
|0----0----0----0------3----3----3----3------------------3---2---0---5---0--|
|------------------------------------------1----1----1----------------------|

|---------------------------------------------------------------------------|
|---------------------------------------------------------------------------|
|---------------------------------------------------------------------------|
|---------------------------------------------------------------------------|
|0----0----0----0------3----3----3----3------------------3---2---0---5------|
|------------------------------------------1----1----1----------------------|

Thats it. get the rythm from the song if you need it! It's really simple.
Good luck!
Tap to rate this tab
 
# A B C D E F G H I J K L M N O P Q R S T U V W X Y Z